Oops, an error
Loading. Please wait.

300 Vs 3000 Guitar Rockmetal Comparison tab

version 1
version 1

Whole song

  • The link to the original song is here https://yout... Show more

Interactive

205 views 6 this week
no commentswrite comment
1 2 3 4 5
3 more votes to show rating
add to favorites
×
Save as Personal and add changes to this tab that will be seen only by you. Learn more ›
×
You can save this tab as Personal to edit and correct it or add notes. All changes will be seen only by you. Learn more »
launch autoscroll
font size
0
reset
how to read this tab
guitar tuner
edit
Autoscroll
slow
fast
+/-
esc
set tempo
stop
About this tab version
The link to the original song is here https://www.youtube.com/watch?v=GioeqcgqEJo. This contains the tab to each section, which is repeated twice each and then repeated on each guitar. Was this info helpful? Yes No
Artist: Jared Dines
Song: $300 vs $3000 Guitar Rockmetal comparison
Link: https://youtu.be/GioeqcgqEJo
Tab: Mark Aranha
Tuning: DADGBE
Difficulty: Novice
Jared is demoing a $300 electric guitar vs a $3000 electric guitar and uses this song to do it.
This contains the tab to each section, which is repeated twice each and then repeated on each guitar.

[Intro]
e|-----------------------------------|----------------------------------------------|
B|-----------------------------------|----------------------------------------------|
G|-7-----9-10------------------------|-7----10-9------------------------------------|
D|-----------------------------------|----------------------------------------------|
A|-5-----7-8-------------------------|-5-----8-7------------------------------------|
D|---0-0---------0-0-0-0-12\--7-p3-5-|---0-0-------8-8-8-8-5-5-5-5-7-7-7-7-3-3-3-3--|

Clean
                                 x3      
e||------------------------------||-----------------------------|
B||------------------------------||-----------------------------|
G||-------2------------------7---||-------2---------------------|
D||-----0-----------7------5---5-||-----0----------7-------9----|
A||---0-----------5---5--3-------||---0----------5---5---7---7--|
D||-0-----------3----------------||-0----------3-------5--------|

Crunch
                                   x3
e||---------------------------------||------------------------------|
B||---------------------------------||------------------------------|
G||---------------------------------||------------------------------|
D||-0-0-0-7-------3-3-3----5-5-5----||-0-0-0-7------3-3-3--5-5-5----|
A||-0-0-0-7-------3-3-3----3-3-3----||-0-0-0-7------3-3-3--5-5-5----|
D||-0-0-0-7-------3-3-3-------------||-0-0-0-7------3-3-3--5-5-5----|

Heavy Distortion (all 16th notes)
e|---------------------------------|---------------------------------|
B|---------------------------------|---------------------------------|
G|---------------------------------|---------------------------------|
D|---------------------------------|---------------------------------|
A|---------------------------------|---------------------------------|
D|-7p0-0-0-0-0-3p0-0-0-0-0-5p0-0-0-|-3p0-0-0-0-0-5p0-0-0-0-0-3p0-0-0-|
   |_|_|_| |_|_|_| |_|_|_| |_|_|_|   |_|_|_| |_|_|_| |_|_|_| |_|_|_|      (all 16th notes)

e|---------------------------------|-----------------------------------------|
B|---------------------------------|-----------------------------------------|
G|---------------------------------|-----------------------------------------|
D|---------------------------------|-----------------------------------------|
A|---------------------------------|-----------------------------------------|
D|-7p0-0-0-0-0-3p0-0-0-0-0-5p0-0-0-|-10h12-0-0-0-0-10h12-0-0-0-0-10h12-0-0-0-|
   |_|_|_| |_|_|_| |_|_|_| |_|_|_|   |__|__|_| |_|_|__|  |_|_|_| |__|__|_|    (all 16th notes)

Distorted Lead 
e|----------------------------------|-----------------------------------|
B|----------------------------------|-----------------------------------|
G|-7----7----5-7--7/10----9----9-10-|-12---12---10/12--12/15--14--------|
D|----------------------------------|-----------------------------15/12-|
A|----------------------------------|-----------------------------------|
D|----------------------------------|-----------------------------------|

Twin lead (distortion, reverb)
e|----------------------------------|-----------------------------------|
B|----------------------------------|-----------------------------------|
G|-7----7----5-7--7/10----9----9-10-|-12---12---10/12--12/15--14--------|
D|----------------------------------|-----------------------------15/12-| Gtr 1
A|----------------------------------|-----------------------------------|
D|----------------------------------|-----------------------------------|
 |                                                                      |
e|----------------------------------|-----------------------------------|
B|----------------------------------|------------------11/15--13--------|
G|-10---10---9-10-10/14---12--12-14-|-15---15---14/15-------------14/10-|
D|----------------------------------|-----------------------------------| Gtr 2
A|----------------------------------|-----------------------------------|
D|----------------------------------|-----------------------------------|

[Outro]
e|-----------------------------------|----------------------------------------------|
B|-----------------------------------|----------------------------------------------|
G|-7-----9-10------------------------|-7----10-9------------------------------------|
D|-----------------------------------|----------------------------------------------|
A|-5-----7-8-------------------------|-5-----8-7------------------------------------|
D|---0-0---------0-0-0-0-12\--7-p3-5-|---0-0-------8-8-8-8-5-5-5-5-7-7-7-7-3-3-3-3--|

e|-----------------------------------|----------------------------------------------|---------|
B|-----------------------------------|----------------------------------------------|---------|
G|-7----9-10-------------------------|-7----10-9------------------------------------|-2-------|
D|-----------------------------------|----------------------------------------------|-0-------|
A|-5----7-8--------------------------|-5-----8-7------------------------------------|-0-------|
D|---0-0---------0-0-0-0-12\--7-p3-5-|---0-0-------8-8-8-8-5-5-5-5-7-7-7-7-3-3-3-3--|-0-------|

***********************************

| x   Dead note
| /   Slide-up
| \   Slide-down
| pb  Pre-bend
| ~   Vibrato
| .   Staccato
| PM  Palm muting

***********************************
Suggest correction
Creating personal tab
Creating personal tab
You can edit any tab online and save it as your Personal.

You can edit, replace or remove any tab part or add personal notes – all changes will be seen only by you.

Personal tabs can be accessed anytime from any device, even offline.
Learn more »
Give kudos to tab author, rate the tab!
1 2 3 4 5
comments
print report bad tab
guest
You may want to rate the tab now too:
select rating
Wanna post a correction for this tab? Suggest correction