Oops, an error
Loading. Please wait.

Do You Remember bass

85 views 1 this week
no commentswrite comment
1 2 3 4 5
3 more votes to show rating
add to favorites
×
Save as Personal and add changes to this tab that will be seen only by you. Learn more ›
×
You can save this tab as Personal to edit and correct it or add notes. All changes will be seen only by you. Learn more »
launch autoscroll
font size
0
reset
guitar tuner
edit
Autoscroll
slow
fast
+/-
esc
set tempo
stop
Author
Difficulty
About this tab version
Standard tuning Bass that matches the Lead Version. Was this info helpful? Yes No
This Tab matches Version 3 of the guitar Tabs, I recommending viewing both to
better understand timing and structure.

There are a few sections of mute that I haven't included, just listen to the song to pick them out.

[Verse Bass]
  C#m
G|----------------|----------------|----------------|-----------------|
D|----------------|----------------|----------------|-----------------|
A|-4-4-4-4-4-4----|-4-4-4-4-4-4----|-4-4-4-4-4-4----|-4-4-4-4-6-6-6-6-|
E|----------------|----------------|----------------|-----------------|

  E
G|----------------|----------------|----------------|----------------|
D|----------------|----------------|----------------|----------------|
A|-7-7-7-7-7-7----|-7-7-7-7-7-7----|-7-7-7-7-7-7----|-7-7-7-7--------|
E|----------------|----------------|----------------|----------------|

  C#m
G|----------------|----------------|----------------|-----------------|
D|----------------|----------------|----------------|-----------------|
A|-4-4-4-4-4-4----|-4-4-4-4-4-4----|-4-4-4-4-4-4----|-4-4-4-4-2-2-2-2-|
E|----------------|----------------|----------------|-----------------|

  E
G|----------------|----------------|----------------|----------------|
D|----------------|----------------|----------------|----------------|
A|-7-7-7-7-7-7----|-7-7-7-7-7-7----|-7-7-7-7-7-7----|-7-7-7-7--------|
E|----------------|----------------|----------------|----------------|

  C#m
G|----------------|----------------|----------------|-----------------|
D|----------------|----------------|----------------|-----------------|
A|-4-4-4-4-4-4----|-4-4-4-4-4-4----|-4-4-4-4-4-4----|-4-4-4-4-6-6-6-6-|
E|----------------|----------------|----------------|-----------------|

  E
G|----------------|----------------|----------------|-----------------|
D|----------------|----------------|----------------|-----------------|
A|-7-7-7-7-7-7----|-7-7-7-7-7-7----|-7-7-7-7-7-7----|-7-7-7-7---------|
E|----------------|----------------|----------------|---------5-5-5-5-|

[Pre-Chorus Bass]
  B
G|----------------|----------------|----------------|----------------|
D|----------------|----------------|----------------|----------------|
A|----------------|----------------|----------------|---------7-7-7-7|
E|-7-7-7-7-7-7----|-7-7-7-7-7-7----|-7-7-7-7-7-7----|-7-7-7-7--------|

  C#m
G|----------------|----------------|----------------|----------------|
D|----------------|----------------|----------------|----------------|
A|-4-4-4-4-4-4----|-4-4-4-4-4-4----|-4-4-4-4-4-4----|-4-4-4-4--------|
E|----------------|----------------|----------------|----------------|

[Chorus Bass]
This slide is gradual, so would be better with a tremolo bar, or prebending and releasing the lower note.
  C#m
G|----------------|----------------|----------------|----------------|
D|----------------|----------------|----------------|----------------|
A|-4\3------------|-4\3------------|-4\3------------|-4------6-------|
E|----------------|----------------|----------------|----------------|
  E
G|----------------|----------------|----------------|----------------|
D|----------------|----------------|----------------|----------------|
A|-7\6------------|-7\6------------|-7\6------------|-7--------------|
E|----------------|----------------|----------------|--------5-------|
  B
G|----------------|----------------|----------------|----------------|
D|----------------|----------------|----------------|----------------|
A|----------------|----------------|----------------|--------7-------|
E|-7\6------------|-7\6------------|-7\6------------|-7--------------|

  C#m
G|----------------|----------------|----------------|----------------|
D|----------------|----------------|----------------|----------------|
A|-4\3------------|-4\3------------|-4\3------------|-4------2-------|
E|----------------|----------------|----------------|----------------|

[Verse Bass]
  C#m
G|----------------|----------------|----------------|-----------------|
D|----------------|----------------|----------------|-----------------|
A|-4-4-4-4-4-4----|-4-4-4-4-4-4----|-4-4-4-4-4-4----|-4-4-4-4-6-6-6-6-|
E|----------------|----------------|----------------|-----------------|

  E
G|----------------|----------------|----------------|----------------|
D|----------------|----------------|----------------|----------------|
A|-7-7-7-7-7-7----|-7-7-7-7-7-7----|-7-7-7-7-7-7----|-7-7-7-7--------|
E|----------------|----------------|----------------|----------------|

  C#m
G|----------------|----------------|----------------|-----------------|
D|----------------|----------------|----------------|-----------------|
A|-4-4-4-4-4-4----|-4-4-4-4-4-4----|-4-4-4-4-4-4----|-4-4-4-4-2-2-2-2-|
E|----------------|----------------|----------------|-----------------|

  E
G|----------------|----------------|----------------|----------------|
D|----------------|----------------|----------------|----------------|
A|-7-7-7-7-7-7----|-7-7-7-7-7-7----|-7-7-7-7-7-7----|-7-7-7-7--------|
E|----------------|----------------|----------------|----------------|

  C#m
G|----------------|----------------|----------------|-----------------|
D|----------------|----------------|----------------|-----------------|
A|-4-4-4-4-4-4----|-4-4-4-4-4-4----|-4-4-4-4-4-4----|-4-4-4-4-6-6-6-6-|
E|----------------|----------------|----------------|-----------------|

  E
G|----------------|----------------|----------------|-----------------|
D|----------------|----------------|----------------|-----------------|
A|-7-7-7-7-7-7----|-7-7-7-7-7-7----|-7-7-7-7-7-7----|-7-7-7-7---------|
E|----------------|----------------|----------------|---------5-5-5-5-|

[Pre-Chorus Bass]
  B
G|----------------|----------------|----------------|----------------|
D|----------------|----------------|----------------|----------------|
A|----------------|----------------|----------------|---------7-7-7-7|
E|-7-7-7-7-7-7----|-7-7-7-7-7-7----|-7-7-7-7-7-7----|-7-7-7-7--------|

  C#m
G|----------------|----------------|----------------|----------------|
D|----------------|----------------|----------------|----------------|
A|-4-4-4-4-4-4----|-4-4-4-4-4-4----|-4-4-4-4-4-4----|-4-4-4-4--------|
E|----------------|----------------|----------------|----------------|

[Chorus Bass]
  C#m
G|----------------|----------------|----------------|----------------|
D|----------------|----------------|----------------|----------------|
A|-4\3------------|-4\3------------|-4\3------------|-4------6-------|
E|----------------|----------------|----------------|----------------|
  E
G|----------------|----------------|----------------|----------------|
D|----------------|----------------|----------------|----------------|
A|-7\6------------|-7\6------------|-7\6------------|-7--------------|
E|----------------|----------------|----------------|--------5-------|
  B
G|----------------|----------------|----------------|----------------|
D|----------------|----------------|----------------|----------------|
A|----------------|----------------|----------------|--------7-------|
E|-7\6------------|-7\6------------|-7\6------------|-7--------------|

  C#m
G|----------------|----------------|----------------|----------------|
D|----------------|----------------|----------------|----------------|
A|-4\3------------|-4\3------------|-4\3------------|-4------2-------|
E|----------------|----------------|----------------|----------------|

[Bridge Bass] - Silent

[Chorus Bass]
  C#m
G|----------------|----------------|----------------|----------------|
D|----------------|----------------|----------------|----------------|
A|-4\3------------|-4\3------------|-4\3------------|-4------6-------|
E|----------------|----------------|----------------|----------------|
  E
G|----------------|----------------|----------------|----------------|
D|----------------|----------------|----------------|----------------|
A|-7\6------------|-7\6------------|-7\6------------|-7--------------|
E|----------------|----------------|----------------|--------5-------|
  B
G|----------------|----------------|----------------|----------------|
D|----------------|----------------|----------------|----------------|
A|----------------|----------------|----------------|--------7-------|
E|-7\6------------|-7\6------------|-7\6------------|-7--------------|

  C#m
G|----------------|----------------|----------------|----------------|
D|----------------|----------------|----------------|----------------|
A|-4\3------------|-4\3------------|-4\3------------|-4------2-------|
E|----------------|----------------|----------------|----------------|

[Final Chorus Bass]
  C#m
G|----------------|----------------|----------------|----------------|
D|----------------|----------------|----------------|----------------|
A|-4\3------------|-4\3------------|-4\3------------|-4------6-------|
E|----------------|----------------|----------------|----------------|
  E
G|----------------|----------------|----------------|----------------|
D|----------------|----------------|----------------|----------------|
A|-7\6------------|-7\6------------|-7\6------------|-7--------------|
E|----------------|----------------|----------------|--------5-------|
  B
G|----------------|----------------|----------------|----------------|
D|----------------|----------------|----------------|----------------|
A|----------------|----------------|----------------|--------7-------|
E|-7\6------------|-7\6------------|-7\6------------|-7--------------|

  C#m
G|----------------|----------------|----------------|----------------|
D|----------------|----------------|----------------|----------------|
A|-4\3------------|-4\3------------|-4\3------------|-4------2-------|
E|----------------|----------------|----------------|----------------|

************************************

| \  Slide down

************************************
Suggest correction
Creating personal tab
Creating personal tab
You can edit any tab online and save it as your Personal.

You can edit, replace or remove any tab part or add personal notes – all changes will be seen only by you.

Personal tabs can be accessed anytime from any device, even offline.
Learn more »
Give kudos to tab author, rate the tab!
1 2 3 4 5
comments
print report bad tab
guest
You may want to rate the tab now too:
select rating
Wanna post a correction for this tab? Suggest correction