Oops, an error
Loading. Please wait.

Do You Remember tab

version 2
version 2

Whole song

559 views 1 this week
1 commentread comment
1 2 3 4 5
2 more votes to show rating
add to favorites
×
Save as Personal and add changes to this tab that will be seen only by you. Learn more ›
×
You can save this tab as Personal to edit and correct it or add notes. All changes will be seen only by you. Learn more »
launch autoscroll
font size
0
reset
how to read this tab
guitar tuner
edit
Autoscroll
slow
fast
+/-
esc
set tempo
stop
-------------------------------------------------------------------------------
                             DO YOU REMEMBER - Jarryd James
-------------------------------------------------------------------------------
Tabbed by: ericamcn

****huge credit to matua.guam for providing backbone chords for this tab
check it out here: https://tabs.ultimate-guitar.com/j/jarryd_james/do_you_remember_ver3_crd.htm


Tuning: Standard

CAPO 4

Intro and verse     

   Am           (x4)   C           (x4)
e|------------------------------------------|
B|------------------------------------------|
G|------------------------------------------|
D|---------0-0-2---------------0-0-2--------|
A|-0-0-3-3-----------------3-3--------------|
E|---------------------3-3------------------|

Pre-chorus   [Call me when you've made up your mind...]

   G             (x4)  Am          (x4)
e|---------------------------------------|
B|---------------------------------------|
G|---------------------------------------|
D|---------0-0-2---------------0-0-2-----|
A|-----2-2-------------0-0-3-3-----------|
E|-3-3-----------------------------------|

Chorus

  Am           (x4)   C           (x4)      G             (x4)  Am          (x4)
e|------------------------------------------------------------------------------|
B|------------------------------------------------------------------------------|
G|------------------------------------------------------------------------------|
D|---------0-0-2--------------0-0-2-----------------0-0-2---------------0-0-2---|
A|-0-0-3-3----------------3-3-------------------2-2-------------0-0-3-3---------|
E|--------------------3-3-------------------3-3---------------------------------|


Bridge: just play straight chords as below


          Am
When you love to your limit
      Am 
You gave all you're given
                G                   G
Who you gonna pray to when you're there?
                                       Dm
Will you find out that there ain't no other love
                  Am
No other love for you

 
Yeah, that's pretty much it I think. Just listen to the song and repeat as necessary.
Wasn't 100% confident with the tab on G chord, open to suggestions of course
Again, thanks to matua.guam for backbone chords
Suggest correction
Creating personal tab
Creating personal tab
You can edit any tab online and save it as your Personal.

You can edit, replace or remove any tab part or add personal notes – all changes will be seen only by you.

Personal tabs can be accessed anytime from any device, even offline.
Learn more »
Give kudos to tab author, rate the tab!
1 2 3 4 5
comments
print report bad tab
1 comment total.
0 reply
marcel.oswald 10 Oct 09, 2016 05:35 AM

awesome work man! thanks alot!

guest
You may want to rate the tab now too:
select rating
Wanna post a correction for this tab? Suggest correction