Oops, an error
Loading. Please wait.

Do You Remember tab

version 3
version 3

Whole song

61 views 3 this week
no commentswrite comment
1 2 3 4 5
3 more votes to show rating
add to favorites
×
Save as Personal and add changes to this tab that will be seen only by you. Learn more ›
×
You can save this tab as Personal to edit and correct it or add notes. All changes will be seen only by you. Learn more »
launch autoscroll
font size
0
reset
how to read this tab
guitar tuner
edit
Autoscroll
slow
fast
+/-
esc
set tempo
stop
Author
Difficulty
Palm mute throughout.

[Verse Lead]
  C#m                                             
e|------------------------|------------------------|------------------------|---------------------------|
B|------------------------|------------------------|------------------------|---------------------------|
G|--------------11-11-13--|--------------11-11-13--|--------------11-11-13--|--------------11-11-13-----|
D|-11-11-14-14------------|-11-11-14-14------------|-11-11-14-14------------|-11-11-14-14-----------11*-|
A|------------------------|------------------------|------------------------|---------------------------|
E|------------------------|------------------------|------------------------|---------------------------|
                                                                                             
  E
e|-------------------|-------------------|-------------------|-------------------|
B|-------------------|-------------------|-------------------|-------------------|
G|-----------9-9-11--|-----------9-9-11--|-----------9-9-11--|-----------9-9-11--|
D|-9-9-11-11---------|-9-9-11-11---------|-9-9-11-11---------|-9-9-11-11---------|
A|-------------------|-------------------|-------------------|-------------------|
E|-------------------|-------------------|-------------------|-------------------| 

[Pre-Chorus Lead]
  B                                            
e|------------------------|------------------------|------------------------|------------------------|
B|------------------------|------------------------|------------------------|------------------------|
G|--------------11-13-11--|--------------11-11-13--|--------------11-13-11--|--------------11-11-13--|
D|-11-11-14-14------------|-11-11-14-14------------|-11-11-14-14------------|-11-11-14-14------------|
A|------------------------|------------------------|------------------------|------------------------|
E|------------------------|------------------------|------------------------|------------------------|

  C#m 
e|-------------------|-------------------|-------------------|-------------------|
B|-------------------|-------------------|-------------------|-------------------|
G|-----------9-9-11--|-----------9-9-11--|-----------9-9-11--|-----------9-------|
D|-9-9-11-11---------|-9-9-11-11---------|-9-9-11-11---------|-9-9-11-11---------|
A|-------------------|-------------------|-------------------|-------------------|
E|-------------------|-------------------|-------------------|-------------------|

[Chorus Lead]
  C#m                                             
e|--------------------------|--------------------------|--------------------------|-------------------------|
B|--------------------------|--------------------------|--------------------------|-------------------------|
G|--------------11-11-13----|--------------11-11-13----|--------------11-11-13----|--------------11-11-13---|
D|-11-11-14-14-----------11-|-11-11-14-14-----------11-|-11-11-14-14-----------11-|-11-11-14-14-----------11|
A|--------------------------|--------------------------|--------------------------|-------------------------|
E|--------------------------|--------------------------|--------------------------|-------------------------|
                        
  E
e|-------------------|-------------------|-------------------|-------------------|
B|-------------------|-------------------|-------------------|-------------------|
G|-----------9-9-11--|-----------9-9-11--|-----------9-9-11--|-----------9-9-11--|
D|-9-9-11-11---------|-9-9-11-11---------|-9-9-11-11---------|-9-9-11-11---------|
A|-------------------|-------------------|-------------------|-------------------|
E|-------------------|-------------------|-------------------|-------------------|

  B                                           
e|------------------|------------------|------------------|------------------|
B|------------------|------------------|------------------|------------------|
G|-------8-8-8-9-8--|-------8-8-8-9-8--|-------8-8-8-9-8--|-------8-8-8-9-8--|
D|-11-11------------|-11-11------------|-11-11------------|-11-11------------|
A|------------------|------------------|------------------|------------------|
E|------------------|------------------|------------------|------------------|

  C#m                                           
e|--------------------------|--------------------------|--------------------------|-------------------------|
B|--------------------------|--------------------------|--------------------------|-------------------------|
G|--------------13-11-13----|--------------13-11-13----|--------------13-11-13----|--------------13-13-13---|
D|-11-11-14-14--------------|-11-11-14-14--------------|-11-11-14-14--------------|-11-11-14-14-------------|
A|--------------------------|--------------------------|--------------------------|-------------------------|
E|--------------------------|--------------------------|--------------------------|-------------------------|

[Verse Lead]
  C#m                                             
e|------------------------|------------------------|------------------------|---------------------------|
B|------------------------|------------------------|------------------------|---------------------------|
G|--------------11-11-13--|--------------11-11-13--|--------------11-11-13--|--------------11-11-13-----|
D|-11-11-14-14------------|-11-11-14-14------------|-11-11-14-14------------|-11-11-14-14-----------11*-|
A|------------------------|------------------------|------------------------|---------------------------|
E|------------------------|------------------------|------------------------|---------------------------|
                                                                                             
  E
e|-------------------|-------------------|-------------------|-------------------|
B|-------------------|-------------------|-------------------|-------------------|
G|-----------9-9-11--|-----------9-9-11--|-----------9-9-11--|-----------9-9-11--|
D|-9-9-11-11---------|-9-9-11-11---------|-9-9-11-11---------|-9-9-11-11---------|
A|-------------------|-------------------|-------------------|-------------------|
E|-------------------|-------------------|-------------------|-------------------|

[Pre-Chorus Lead]
  B                                            
e|------------------------|------------------------|------------------------|------------------------|
B|------------------------|------------------------|------------------------|------------------------|
G|--------------11-13-11--|--------------11-11-13--|--------------11-13-11--|--------------11-11-13--|
D|-11-11-14-14------------|-11-11-14-14------------|-11-11-14-14------------|-11-11-14-14------------|
A|------------------------|------------------------|------------------------|------------------------|
E|------------------------|------------------------|------------------------|------------------------|

  C#m 
e|-------------------|-------------------|-------------------|-------------------|
B|-------------------|-------------------|-------------------|-------------------|
G|-----------9-9-11--|-----------9-9-11--|-----------9-9-11--|-----------9-------|
D|-9-9-11-11---------|-9-9-11-11---------|-9-9-11-11---------|-9-9-11-11---------|
A|-------------------|-------------------|-------------------|-------------------|
E|-------------------|-------------------|-------------------|-------------------|

[Chorus Lead]
  C#m                                             
e|--------------------------|--------------------------|--------------------------|-------------------------|
B|--------------------------|--------------------------|--------------------------|-------------------------|
G|--------------11-11-13----|--------------11-11-13----|--------------11-11-13----|--------------11-11-13---|
D|-11-11-14-14-----------11-|-11-11-14-14-----------11-|-11-11-14-14-----------11-|-11-11-14-14-----------11|
A|--------------------------|--------------------------|--------------------------|-------------------------|
E|--------------------------|--------------------------|--------------------------|-------------------------|
                        
  E
e|-------------------|-------------------|-------------------|-------------------|
B|-------------------|-------------------|-------------------|-------------------|
G|-----------9-9-11--|-----------9-9-11--|-----------9-9-11--|-----------9-9-11--|
D|-9-9-11-11---------|-9-9-11-11---------|-9-9-11-11---------|-9-9-11-11---------|
A|-------------------|-------------------|-------------------|-------------------|
E|-------------------|-------------------|-------------------|-------------------|

  B                                           
e|------------------|------------------|------------------|------------------|
B|------------------|------------------|------------------|------------------|
G|-------8-8-8-9-8--|-------8-8-8-9-8--|-------8-8-8-9-8--|-------8-8-8-9-8--|
D|-11-11------------|-11-11------------|-11-11------------|-11-11------------|
A|------------------|------------------|------------------|------------------|
E|------------------|------------------|------------------|------------------|

  C#m                                           
e|--------------------------|--------------------------|--------------------------|-------------------------|
B|--------------------------|--------------------------|--------------------------|-------------------------|
G|--------------13-11-13----|--------------13-11-13----|--------------13-11-13----|--------------13-13-13---|
D|-11-11-14-14--------------|-11-11-14-14--------------|-11-11-14-14--------------|-11-11-14-14-------------|
A|--------------------------|--------------------------|--------------------------|-------------------------|
E|--------------------------|--------------------------|--------------------------|-------------------------|

[Chorus Lead]
  C#m                                             
e|--------------------------|--------------------------|--------------------------|-------------------------|
B|--------------------------|--------------------------|--------------------------|-------------------------|
G|--------------11-11-13----|--------------11-11-13----|--------------11-11-13----|--------------11-11-13---|
D|-11-11-14-14-----------11-|-11-11-14-14-----------11-|-11-11-14-14-----------11-|-11-11-14-14-----------11|
A|--------------------------|--------------------------|--------------------------|-------------------------|
E|--------------------------|--------------------------|--------------------------|-------------------------|
                        
  E
e|-------------------|-------------------|-------------------|-------------------|
B|-------------------|-------------------|-------------------|-------------------|
G|-----------9-9-11--|-----------9-9-11--|-----------9-9-11--|-----------9-9-11--|
D|-9-9-11-11---------|-9-9-11-11---------|-9-9-11-11---------|-9-9-11-11---------|
A|-------------------|-------------------|-------------------|-------------------|
E|-------------------|-------------------|-------------------|-------------------|

  B                                           
e|------------------|------------------|------------------|------------------|
B|------------------|------------------|------------------|------------------|
G|-------8-8-8-9-8--|-------8-8-8-9-8--|-------8-8-8-9-8--|-------8-8-8-9-8--|
D|-11-11------------|-11-11------------|-11-11------------|-11-11------------|
A|------------------|------------------|------------------|------------------|
E|------------------|------------------|------------------|------------------|

  C#m                                           
e|--------------------------|--------------------------|--------------------------|-------------------------|
B|--------------------------|--------------------------|--------------------------|-------------------------|
G|--------------13-11-13----|--------------13-11-13----|--------------13-11-13----|--------------13-13-13---|
D|-11-11-14-14--------------|-11-11-14-14--------------|-11-11-14-14--------------|-11-11-14-14-------------|
A|--------------------------|--------------------------|--------------------------|-------------------------|
E|--------------------------|--------------------------|--------------------------|-------------------------|

[Final Chorus Lead]
  C#m                                             
e|--------------------------|--------------------------|--------------------------|-------------------------|
B|--------------------------|--------------------------|--------------------------|-------------------------|
G|--------------11-11-13----|--------------11-11-13----|--------------11-11-13----|--------------11-11-13---|
D|-11-11-14-14-----------11-|-11-11-14-14-----------11-|-11-11-14-14-----------11-|-11-11-14-14-----------11|
A|--------------------------|--------------------------|--------------------------|-------------------------|
E|--------------------------|--------------------------|--------------------------|-------------------------|
                        
  E
e|-------------------|-------------------|-------------------|-------------------|
B|-------------------|-------------------|-------------------|-------------------|
G|-----------9-9-11--|-----------9-9-11--|-----------9-9-11--|-----------9-9-11--|
D|-9-9-11-11---------|-9-9-11-11---------|-9-9-11-11---------|-9-9-11-11---------|
A|-------------------|-------------------|-------------------|-------------------|
E|-------------------|-------------------|-------------------|-------------------|

  B                                           
e|------------------|------------------|------------------|------------------|
B|------------------|------------------|------------------|------------------|
G|-------8-8-8-9-8--|-------8-8-8-9-8--|-------8-8-8-9-8--|-------8-8-8-9-8--|
D|-11-11------------|-11-11------------|-11-11------------|-11-11------------|
A|------------------|------------------|------------------|------------------|
E|------------------|------------------|------------------|------------------|

  C#m                                             
e|------------------------|------------------------|------------------------|---------------------------|
B|------------------------|------------------------|------------------------|---------------------------|
G|--------------11-11-13--|--------------11-11-13--|--------------11-11-13--|--------------11-11-13-----|
D|-11-11-14-14------------|-11-11-14-14------------|-11-11-14-14------------|-11-11-14-14-----------11*-|
A|------------------------|------------------------|------------------------|---------------------------|
E|------------------------|------------------------|------------------------|---------------------------|


************************************

| *  Grace note

************************************
Suggest correction
Creating personal tab
Creating personal tab
You can edit any tab online and save it as your Personal.

You can edit, replace or remove any tab part or add personal notes – all changes will be seen only by you.

Personal tabs can be accessed anytime from any device, even offline.
Learn more »
Give kudos to tab author, rate the tab!
1 2 3 4 5
comments
print report bad tab
guest
You may want to rate the tab now too:
select rating
Wanna post a correction for this tab? Suggest correction