Oops, an error
Loading. Please wait.

God Rest Ye Merry Gentlemen tab

version 1
version 1

Whole song

13,052 views 12 this week
3 commentsread comments
1 2 3 4 5
x 8
add to favorites
×
Save as Personal and add changes to this tab that will be seen only by you. Learn more ›
×
You can save this tab as Personal to edit and correct it or add notes. All changes will be seen only by you. Learn more »
launch autoscroll
font size
0
reset
how to read this tab
guitar tuner
edit
Autoscroll
slow
fast
+/-
esc
set tempo
stop
                  God Rest Ye Merry Gentlemen
                      from drummer boy CD
                         jars of clay

                                            tran. Brian Harrison
                                              beh2119@tntech.edu

Intro\Main part
                               sl.
|--0--------0--------2--------3\2-3-----0-------0---------------|
|-----0--------0--------0-------0---0-------0------0------------|
|---------------------------------------------------------------|
|--2--------2--------0------------------------------------------|
|-----------------------------3\2-3-----0-------0---------------|
|---------------------------------------------------------------|
                                sl.

     tricky part
|-----3--5--7-----0------2-----3\2-3-----0-------2--------------|
|--------------0-----0------0----0---0------0-------3-----------|
|---------------------------------------------------------------|
|---------------------------------------------------------------|
|-----------------2------0-----3\2-3-----0----------------------|
|-----3--2--0-------------------------------------------3--2----|

Verse 1
God Rest Ye Merry Gentlemen
Let nothing you dismay
Remember Christ the Savior
Was born on Christmas Day
To Save us all from Satan's pow'r
When we had gone astray

Chorus:
O tidings of comfort and joy, comfort and joy
O tidings of comfort and joy

Verse 2
>From God our Heav'nly Father
A Blessed Angel came
And unto certain shepherd's
Bro t tidings of the same
How that in Bethlehem was born
The Son of God by name
O tidings of comfort and joy, comfort and joy
O tidings of comfort and joy


Solo Intro
|---------------------------------------------------------------|
|--5----3----1---0----------------------------------------------|
|----------------------2----0-----------------------------------|
|--------------------------------4----0-------------------------|
|---------------------------------------------------------------|
|---------------------------------------------------------------|

Chord progression for solo
Chorus:
Em   Am   D    G

Song Format
Intro
main part 7X with Verse 1 & Chorus
main part 6X with Verse 2 & Chorus
Solo intro
Em   Am   D    G  4x with solo
main part 7X with Verse 1 & Chorus

Send any requests to <- electricpickboy@yahoo.com ->
Suggest correction
Creating personal tab
Creating personal tab
You can edit any tab online and save it as your Personal.

You can edit, replace or remove any tab part or add personal notes – all changes will be seen only by you.

Personal tabs can be accessed anytime from any device, even offline.
Learn more »
comments
print report bad tab
3 comments total.
0 reply
blackbeltpop109 33 Nov 30, 2009 11:47 AM

Great Tab! five stars!
One little tiny thing is off.

|---------------------------------------------------------------|
|--5----3----1---0----------------------------------------------|
|----------------------2----0-----------------------------------|
|--------------------------------4----0-------------------------|
|---------------------------------------------------------------|
|---------------------------------------------------------------|
The last note should be on the first fret:
|---------------------------------------------------------------|
|--5----3----1---0----------------------------------------------|
|----------------------2----0-----------------------------------|
|--------------------------------4----1-------------------------|
|---------------------------------------------------------------|
|---------------------------------------------------------------|

0 reply
ScooterC93 31 Jan 30, 2011 11:22 AM

I like it too. One other thing I'd point out is just a typo, I think.

tricky part
|-----3--5--7-----0------2----
|--------------0-----0------0-
|-----------------------------
|-----------------------------
|-----------------2------0----
|-----3--2--0-----------------

Should be on the D string instead of A string…
tricky part
|-----3--5--7-----0------2----
|--------------0-----0------0-
|-----------------------------
|-----------------2------0----
|-----------------------------
|-----3--2--0-----------------

0 reply
melaniephd 10 Mar 26, 2016 06:55 AM

Wrong bass notes plus a few other wrong notes, and the uneven spacing makes timing confusing. Solo is missing a lot of open string notes.

guest
Wanna post a correction for this tab? Suggest correction