Oops, an error
Loading. Please wait.

Love Me chords

19 views 3 this week
no commentswrite comment
1 2 3 4 5
3 more votes to show rating
add to favorites
×
Save as Personal and add changes to this tab that will be seen only by you. Learn more ›
×
You can save this tab as Personal to edit and correct it or add notes. All changes will be seen only by you. Learn more »
launch autoscroll
font size
0
reset
transpose
0
reset
simplify chords
display chords
guitar tuner
edit
Autoscroll
slow
fast
+/-
esc
set tempo
stop
Author
Strumming
There is no strumming pattern for this song yet. and get +5 IQ
Jars of Clay
Love Me
Tabbed/chorded by Nick Wallace

[Verse 1]
e|-------------------------------------------|
B|-------------------------------------------|
G|-------------------------------------------|
D|-7-7-6-7-7-11-11-6-7-7-7-6-7-7-11-11-12-12-|
A|-0-0-0-0-0-0--0--0-0-0-0-0-0-0-0--0--0--0--|
E|-------------------------------------------|

  A              F#
I built my wall
    E                      D
You walked right through it
  A              F#
I threw my stone
    E           D
You leaned into it

e|---------------------|
B|---------------------|
G|---------------------|
D|-7-7-6-7-7-11-11-6-7-|
A|-0-0-0-0-0-0--0--0-0-|
E|---------------------|

[Pre-Chorus]
e|-------------------------------------------|
B|-------------------------------------------|
G|-------------------------------------------|
D|-7-7-6-7-7-11-11-6-7-7-7-6-7-7-11-11-12-12-|
A|-0-0-0-0-0-0--0--0-0-0-0-0-0-0-0--0--0--0--|
E|-------------------------------------------|
  A   F#    E     D    A  F#     
E     D

             A           F#
You were the only one to show me hell
    E                D
You rescued my soul, shattered my shell
             A             F#
You were the only spot not petrified
E                     D
Said the right things at the right time

[Chorus]
    A                 D          A       D
You love me, love me, love me
    F#                A                D
You love me, love me, love me, love me now

e|---------------------|
B|---------------------|
G|---------------------|
D|-7-7-6-7-7-11-11-6-7-|
A|-0-0-0-0-0-0--0--0-0-|
E|---------------------|

[Verse 2]
    A              F#
You light my fuse
E               D
I won't blow it
          A               F#
And these games you use
       E                  D
Do you think I don't know it?

[Pre-Chorus]
             A           F#
You were the only one to show me hell
    E                D
You rescued my soul, shattered my shell
             A             F#
You were the only spot not petrified
E                     D
Said the right things at the right time

[Chorus]
    A                 D          A       D
You love me, love me, love me
    F#                A                D
You love me, love me, love me, love me now

D                G/D
Love me, love me now

[Bridge]

A Asus G D x2

   A    Asus    G   D   A    Asus  
    G     D
My eyes don't belong, across from your stare
A       Asus  G         D          A     
Asus      G    D
I'm not going home, and you're not going anywhere

[Chorus]
    A                 D          A       D
You love me, love me, love me
    F#                A                D
You love me, love me, love me, love me now
(Repeat)

A Asus G D               4x
         Love me now

A
Suggest correction
Creating personal tab
Creating personal tab
You can edit any tab online and save it as your Personal.

You can edit, replace or remove any tab part or add personal notes – all changes will be seen only by you.

Personal tabs can be accessed anytime from any device, even offline.
Learn more »
Give kudos to tab author, rate the tab!
1 2 3 4 5
comments
print report bad tab
guest
You may want to rate the tab now too:
select rating
Wanna post a correction for this tab? Suggest correction