Oops, an error
Loading. Please wait.

Love Song For A Savior bass

576 views 1 this week
no commentswrite comment
1 2 3 4 5
3 more votes to show rating
add to favorites
×
Save as Personal and add changes to this tab that will be seen only by you. Learn more ›
×
You can save this tab as Personal to edit and correct it or add notes. All changes will be seen only by you. Learn more »
launch autoscroll
font size
0
reset
guitar tuner
edit
Autoscroll
slow
fast
+/-
esc
set tempo
stop
Author
Difficulty
This my first tab and I think it sounds pretty good.

on the album, the first verse is not played with the bass but it sounds fine if you want 
play the first verse.
If you cant find the timing, play a new note every time you here the acoustic chords change.


Verse 1:
E|0-------------------------2--------------3---------------------------------|
A|---------------------------------------------------------------------------|x4
D|----------0----------------------------------------------------------------|
G|---------------------------------------------------------------------------|

Pre-chorus:
E|1---------3-----2------------1-----------3--2--3----------1----3---1------|
A|--------------------------------------------------------------------------|
D|--------------------------------------------------------------------------|
G|--------------------------------------------------------------------------|


E|------------------0-------------------------------------------------------|
A|--0-------1---------------------------------------------------------------|
D|-----------------------------------0--------------------------------------|
G|--------------------------------------------------------------------------|

Chorus:
E|3-----------------------0------------3------------------0-----------------|
A|---------3-----0----------------------------3------0----------------------|
D|------------------------------0------------------------------0------------|
G|--------------------------------------------------------------------------|

post-chorus
E|-0--------------3---------------------------------------------------------|
A|-------------------------x2-----------------------------------------------|
D|--------0-----------------------------------------------------------------|
G|--------------------------------------------------------------------------|


The second verse is the same as the first just without any of the f flat/g sharp notes.  
situation with the the pre-chorus.


Chorus:
E|3-----------------------0------------3------------------0-----------------|
A|---------3-----0----------------------------3------0----------------------|
D|------------------------------0------------------------------0------------|
G|--------------------------------------------------------------------------|

post-chorus
E|-0--------------3---------------------------------------------------------|
A|-------------------------x3-----------------------------------------------|
D|--------0-----------------------------------------------------------------|
G|--------------------------------------------------------------------------|

bridge:
E|---------------3--------------0---------------------------------2---------|
A|-0------------------------------------------------------------------------|
D|-----------------------------------------------0--------------------------|
G|--------------------------------------------------------------------------|


E|3-------------2----------------0--------------------------------3---------|
A|--------------------------------------------------------------------------|
D|-----------------------------------------------0--------------------------|
G|--------------------------------------------------------------------------|


No bass in the third verse type part of the song.

Chorus:
E|3-----------------------0------------3------------------0-----------------|
A|---------3-----0----------------------------3------0----------------------|
D|------------------------------0------------------------------0------------|
G|--------------------------------------------------------------------------|

Play until the song fades out.
Suggest correction
Creating personal tab
Creating personal tab
You can edit any tab online and save it as your Personal.

You can edit, replace or remove any tab part or add personal notes – all changes will be seen only by you.

Personal tabs can be accessed anytime from any device, even offline.
Learn more »
Give kudos to tab author, rate the tab!
1 2 3 4 5
comments
print report bad tab
guest
You may want to rate the tab now too:
select rating
Wanna post a correction for this tab? Suggest correction