Oops, an error
Loading. Please wait.

Safe To Land tab

139 views 1 this week
no commentswrite comment
1 2 3 4 5
3 more votes to show rating
add to favorites
×
Save as Personal and add changes to this tab that will be seen only by you. Learn more ›
×
You can save this tab as Personal to edit and correct it or add notes. All changes will be seen only by you. Learn more »
launch autoscroll
font size
0
reset
how to read this tab
guitar tuner
edit
Autoscroll
slow
fast
+/-
esc
set tempo
stop
About this tab version
This version includes tablature for the picking at the beginning and throughout along with chord symbols for the bulk of the song. As true to the original as possible. No capo. Was this info helpful? Yes No
[Intro/Main Riff]

e|---------------------------------------------------------------|
B|---------------------------------------------------------------|
G|-------------0----0----0----0----0----0----0----0--------------|
D|---------------------------------------------------------------|
A|----------3----3----3----3-------------------------------------|
E|------------------------------1----1----1----1-----------------|

e|---------------------------------------------------------------|
B|---------------------------------------------------------------|
G|---------------------------------------------------------------|
D|-------------3----3----3----3----3----3----3----3--------------|
A|----------1----1----1----1----1----1----1----1-----------------|
E|---------------------------------------------------------------|

[x4]


[Verse 1 - repeat main riff]

Getting tired from all this circling
Not much grace left on a broken wing
I feel the wind trying to push me down
It happens every time I get to town

e|------------------------------------------|
B|------------------------------------------|
G|------------------------------------------|
D|----------------0----0----0----0----------|
A|------------------------------------------|
E|-------------3----3----3----3-------------|


[Interlude - the 'ooooo's]

C - Dm - Bb

C - Dm - Bb


[Verse 2]

C
I search for shelter near 

e|---------------------------------------------------------------|
B|---------------------------------------------------------------|
G|---------------------------------------------------------------|
D|-------------3----3----3----3----3----3----3----3--------------|
A|----------1----1----1----1----1----1----1----1-----------------| [Back to main riff
E|---------------------------------------------------------------|     for the rest of the verse]

the mines we swept 

I guess forgiveness hasn't happened yet
There are no words that I can say to you
That turn this careless sky from black to blue

e|------------------------------------------|
B|------------------------------------------|
G|------------------------------------------|
D|----------------0----0----0----0----------|
A|------------------------------------------|
E|-------------3----3----3----3-------------|

So I'm asking you, is it safe


[Chorus]

C          Dm       Bb
(Is it safe,) is it safe to land?
C                    Dm              Bb
'Cause I'm not going far on an empty heart
C         Dm      Bb
Is it safe, is it safe to land?
           C                 Dm                   Bb       F
'Cause the long fall back to earth is the hardest part



[Bridge/Climax]

C                      Bb     F
I'm in no weather for apologies
C                            Bb       F
I need your runway lights to burn for me
Am                  Bb
And if you say that I can come around
Bb
I will love you right
               C            Dm
Yeah, I won't let you down
Dm        Bb
I won't let you down
               C    Dm
Cuz I'm coming home
                         Bb
If these wheels touch down
           C
I'm coming home
               Dm
I'm waking you up
                     Bb
In the middle of the night I'm not giving up
          C
I'm gonna stay
               Dm
Til we make it work
                Bb
We're not going down, even if it gets worse
              C       Dm
We'll work it out
           Bb
Yeah we'll work it out
            C        Dm
I need your light
         Bb
Guide me in


C - Dm - Bb [repeat until end of song; end on C ]


Oooh, ooh oh oh oh

Yeah, is it safe?


[End]


Great song. There is a missing note or chord that has been bugging me - especially 
during the climax of the song, the note changes at the end of a lyric and I can't 
figure it out, so if anyone else catches that and can improve this, that would be
great! Thanks. :)

            
            
Suggest correction
Creating personal tab
Creating personal tab
You can edit any tab online and save it as your Personal.

You can edit, replace or remove any tab part or add personal notes – all changes will be seen only by you.

Personal tabs can be accessed anytime from any device, even offline.
Learn more »
Give kudos to tab author, rate the tab!
1 2 3 4 5
comments
print report bad tab
guest
You may want to rate the tab now too:
select rating
Wanna post a correction for this tab? Suggest correction