Oops, an error
Loading. Please wait.

Show Your Love tab

version 2
version 2

Whole song

1,962 views 1 this week
no commentswrite comment
1 2 3 4 5
x 3
add to favorites
×
Save as Personal and add changes to this tab that will be seen only by you. Learn more ›
×
You can save this tab as Personal to edit and correct it or add notes. All changes will be seen only by you. Learn more »
launch autoscroll
font size
0
reset
how to read this tab
guitar tuner
edit
Autoscroll
slow
fast
+/-
esc
set tempo
stop
Author
Tabbers playing skills
intermediate
This is the real version of the tab. Version 4 is a duplicate of this one because I 
accidentally submitted it once when logged in and another time when logged out. ;)

Tunings: Double Drop D and Standard

| x  rake muted string
| h  hammer-on
| /  slide up
| \  slide down
| *  natural harmonic
| ~  let ring

Gtr 1 tuned DADGBD, Gtrs 2 and 3 tuned EADGBe
 {Gtr 1 - acoustic
 {Gtr 2 - acoustic
 {Gtr 3 - electric with some voicing


Really awesome song, both lyrically and musically. Great for acoustic. :)

[Intro Riff]
   {Gtr 1
D|--------------------------------------------|
B|--------------------------------------------|
G|--------------------------5-4-5-4--2-2-2-2--|
D|--x-x--2h4-4-2-0--0-0-0-0-0-0-0-0--0-0-0-0--|
A|--x-x--0---0-0-0--0-0-x-x-x-x-x-x--x-x------|
D|--x-x--0---0-0-0--0-0-5-5-5-5-5-5--5-5------|

   {Gtr 1
D|---------------------------------------|
B|---------------------------------------| Repeat this segment whenever
G|---------------------5-4-5-4--2-2-2-2--| the tab calls for the intro
D|--2h4-4-2-0--0-0-0-0-0-0-0-0--0-0-0-0--| riff; don't keep raking the
A|--0---0-0-0--0-0-x-x-x-x-x-x--x-x------| strings as the start of the loop
D|--0---0-0-0--0-0-5-5-5-5-5-5--5-5------|


[Verse 1] Play Intro Riff x4


[Chorus 1] I have a strong hunch this is played with a mandolin, but to match the notes 
in the right octave for guitar this is how it's played. If you don't like how it sounds 
for the really high parts, just play the Gtr 1 part for the bridge (part 1); it's an octave lower.

   {Gtr 1
D|--14-16--14-16--16-10-10-10-9--9-9--|
B|--15-15--15-15--15-8--8--8--8--8-8--|
G|--14-14--14-14--14-0--0--0--0--0-0--| x2
D|--0--0---0--0---0-------------------|
A|------------------------------------|
D|------------------------------------|

   {Gtr 1
D|--14-16--14-16--16-9~--|
B|--15-15--15-15--15-8~--|
G|--14-14--14-14--14-0~--|
D|--0--0---0--0---0--0~--|
A|-----------------------|
D|-----------------------|


[Post-Chorus]
   {Gtr 1
D|--17-16-17-16--10--9--|
B|--15-15-15-15--8---8--|
G|--14-14-14-14--0---0--| x2
D|--0--0--0--0---0---0--|
A|--0--0--0--0----------|
D|----------------------|
   {Gtr 2
e|---------------------------|
B|---------------------------|
G|-----7*----7*----7*----7*--| Play this section here, loop it, and let it
D|--7*----7*----7*----7*-----| repeat thru the second verse.
A|---------------------------|
E|---------------------------|


[Verse 2] Play the Intro Riff with Gtr 1 while the Gtr 2 harmonic loop (above) is going. 
Once it is looped, Gtr 2 should be free to play this:
   {Gtr 2
e|------------------------------------|
B|--3-3-3-3--3-3-33--3-3-3-3--3-3-33--|
G|--2-2-2-2--2-2-22--0-0-0-0--0-0-00--| Repeat as necessary
D|--0-0-0-0--0-0-00--0-0-0-0--0-0-00--|
A|--0-0-0-0--0-0-00--x-x-x-x--x-x-xx--|
E|-------------------3-3-3-3--3-3-33--|


[Pre-Chorus]
   {Gtr 1
D|--14-16--14-16--16--9-9-9-9-9-9--|
B|--15-15--15-15--15--8-8-8-8-8-8--|
G|--14-14--14-14--14--0-0-0-0-0-0--|
D|--0--0---0--0---0---0-0-0-0-0-0--|
A|--0--0---0--0---0----------------|
D|---------------------------------|


[Chorus 2]
   {Gtr 1
D|--14-16--14-16--16-10-10-10-9--9-9--|
B|--15-15--15-15--15-8--8--8--8--8-8--|
G|--14-14--14-14--14-0--0--0--0--0-0--| x2
D|--0--0---0--0---0-------------------|
A|--0--0---0--0---0-------------------|
D|------------------------------------|

   {Gtr 1
D|-14-16--14-16--16--9-9-9-9-9-9-9-9----------------------------------------|
B|-15-15--15-15--15--8-8-8-8-8-8-8-8-10-10-10-10-10-10-10-10-3-3-3-3-3-3-3--|
G|-14-14--14-14--14--0-0-0-0-0-0-0-0-9--9--9--9--9--9--9--9--2-2-2-2-2-2-2--|
D|-0--0---0--0---0---0-0-0-0-0-0-0-0-7--7--7--7--7--7--7--7--0-0-0-0-0-0-0--|
A|-0--0---0--0---0-------------------7--7--7--7--7--7--7--7--0-0-0-0-0-0-0--|
D|-----------------------------------7--7--7--7--7--7--7--7--0-0-0-0-0-0-0--|


[Bridge]
       ~Part 1~
   {Gtr 3               /- -Repeat this part- -\
E|------------------------------------------------|
B|------------------------------------------------|
G|------------------------------------------------|
d|--7\-0-7/10-9\7-7\5~--4/5-5/7\-0-7/10-9\7-7\5~--|
A|------------------------------------------------|
D|------------------------------------------------|
 | {Gtr 1                          |
D|--2-4-4-2-4-4-2-10-10-10-9--9-9--|
B|--3-3-3-3-3-3-3-8--8--8--8--8-8--|
G|--2-2-2-2-2-2-2-0--0--0--0--0-0--|
D|--0-0-0-0-0-0-0-0--0--0--0--0-0--|
A|--0-0-0-0-0-0-0------------------|
D|---------------------------------|

       ~Part 2~
   {Gtr 1
D|----------------------------------------------------------------|
B|----------------------------------------------------------------|
G|----------------------------------------------------------------|
D|--222222-44-555555-44-222222-44-5555555-44-222222-44-555555555--|
A|--222222-44-555555-44-222222-44-5555555-44-222222-44-555555555--|
D|--222222-44-555555-44-222222-44-5555555-44-222222-44-555555555--|
 | {Gtr 3 - Listen to the track to match how to play this.
e|------------------------------------------------------|
B|------------------------------------------------------|
G|--4\2----4~-----------4\2----4\2-4\2~------4\2----4~--|
D|------------------------------------------------------|
A|------------------------------------------------------|
E|------------------------------------------------------|


       ~Part 3~
   {Gtr 2
e|---------------------------|
B|---------------------------|
G|-----7*----7*----7*----7*--|
D|--7*----7*----7*----7*-----|
A|---------------------------|
E|---------------------------|
 | {Gtr 1                    |
D|--17-16-17-16----17-16-17-16--10--9--|
B|--15-15-15-15----15-15-15-15--8---8--|
G|--14-14-14-14----14-14-14-14--0---0--|
D|--0--0--0--0-----0--0--0--0---0---0--|
A|--0--0--0--0-----0--0--0--0----------|
D|-------------------------------------|


[Chorus 3]
   {Gtr 1
D|--14-16--14-16--16-10-10-10-9--9-9--|
B|--15-15--15-15--15-8--8--8--8--8-8--|
G|--14-14--14-14--14-0--0--0--0--0-0--| x2
D|--0--0---0--0---0--0--0--0--0--0-0--|
A|--0--0---0--0---0-------------------|
D|------------------------------------|

   {Gtr 1
D|--14-16--14-16--16-9-9-9-9-9-9-9--|
B|--15-15--15-15--15-8-8-8-8-8-8-8--|
G|--14-14--14-14--14-0-0-0-0-0-0-0--|
D|--0--0---0--0---0--0-0-0-0-0-0-0--|
A|--0--0---0--0---0-----------------|
D|----------------------------------|


[Outro]
Here, the Gtr 3 section in the Bridge comes back in and repeats till the end. Underneath 
it, Gtr 1 repeats this:
   {Gtr 1
D|--14-16--14-16--16-10-10-10-9--9-9--|
B|--15-15--15-15--15-8--8--8--8--8-8--|
G|--14-14--14-14--14-0--0--0--0--0-0--|
D|--0--0---0--0---0--0--0--0--0--0-0--|
A|--0--0---0--0---0-------------------|
D|------------------------------------|

Finished! God bless. :)

            
            
Suggest correction
Creating personal tab
Creating personal tab
You can edit any tab online and save it as your Personal.

You can edit, replace or remove any tab part or add personal notes – all changes will be seen only by you.

Personal tabs can be accessed anytime from any device, even offline.
Learn more »
Give kudos to tab author, rate the tab!
1 2 3 4 5
comments
print report bad tab
guest
You may want to rate the tab now too:
select rating
Wanna post a correction for this tab? Suggest correction