Oops, an error
Loading. Please wait.

Weighed Down tab

794 views 1 this week
no commentswrite comment
1 2 3 4 5
3 more votes to show rating
add to favorites
×
Save as Personal and add changes to this tab that will be seen only by you. Learn more ›
×
You can save this tab as Personal to edit and correct it or add notes. All changes will be seen only by you. Learn more »
launch autoscroll
font size
0
reset
how to read this tab
guitar tuner
edit
Autoscroll
slow
fast
+/-
esc
set tempo
stop
#----------------------------------PLEASE NOTE--------------------------------#
#This file is the author's own work and represents their interpretation of the#
#song. You may only use this file for private study, scholarship, or research.#
#-----------------------------------------------------------------------------#

Date: Sat, 4 Apr 1998 13:29:00 -0500
!From: Daniel S Fisher 
Subject: TAB:"Weighed Down" by Jars of Clay


"Weighed Down" by Jars of Clay from the MUCH AFRAID album (1997)

Tabbed by Daniel S. Fisher -- Comments welcome!
wetstone@compuserve.com

There are several ways to play this song.  On the album the guys use 2
guitars, but I tabbed only one guitar with perhaps more full voicings
than the chords actually used so that it will sound more full with
only one guitar. The chord forms listed below are even more general
but they sound pretty good.  Experiment with other partial chords to
find your own favorite forms.

CHORD FORMS

  C#m       E      F#7/11     A9       D9      Bsus      A        G
4x---oo  4o---oo  2----oo  1xo--oo  1xxo--o  2x---oo  5x-----  3x-----
 |o||||   |||o||   o|||||   ||||||   ||||||   |o||||   ||||oo   ||||oo
 ------   ------   ------   ------   ------   ------   ------   ------
 ||||||   ||||||   |||o||   ||oo||   |||o||   ||||||   |||o||   |||o||
 ------   ------   ------   ------   ------   ------   ------   ------
 ||oo||   ||o|||   |oo|||   ||||||   ||||o|   ||oo||   |oo|||   |oo|||
 ------   ------   ------   ------   ------   ------   ------   ------
 ||||||   |o||||   ||||||   ||||||   ||||||   ||||||   ||||||   ||||||


4/4

BPM = 110

INTRO (bars 1 and 2, do once before first verse only)

1  C#m                                           2  E
|------------------------------------------------|------------------------==
|------------------------------------------------|------------------------==
|--------------6--6--6--6===--6==================|--------------6--6--6--6==
|--------------6--6--6--6===--4==================|--------------6--6--6--6==
|--4===--4===--4--4--4--4===--4==================|--------------7--7--7--7==
|------------------------------------------------|--0===--0=============--==


                        3  F#7/11
------------------------|-----------------------------0================--==
------------------------|-----------------------------0================--==
===--6==================|--------------3--3--3--3===--3================--==
===--4==================|--------------4--4--4--4===--4================--==
===--7==================|--------------4--4--4--4===--4================--==
========================|--2===--2=====================------------------==


4  A9                                            5  C#m
|-----------------------------0==================|------------------------==
|-----------------------------0==================|------------------------==
|--------------4--4--4--4===--2==================|--------------6--6--6--6==
|--------------2--2--2--2===--2==================|--------------6--6--6--6==
|--0===--0===--0--0--0--0===--0==================|--4===--4===--4--4--4--4==
|------------------------------------------------|------------------------==
                                          VERSE 1:
                                          VERSE 2:

                        6  E
------------------------|------------------------------------------------==
------------------------|------------------------------------------------==
===--6==================|--------------6--6--6--6===--6================--==
===--4==================|--------------6--6--6--6===--4================--==
===--4==================|--------------7--7--7--7===--7================--==
------------------------|--0===--0=====================================--==
            Light          of                                        the
            Our            hearts                                      a

7 F#7/11                                         8 A9
|-----------------------------0==================|------------------------==
|-----------------------------0==================|------------------------==
|--------------3--3--3--3===--3==================|--------------4--4--4--4==
|--------------4--4--4--4===--4==================|--------------2--2--2--2==
|--------------4--4--4--4===--4==================|--0===--0===--0--0--0--0==
|--2===--2=====================------------------|------------------------==
   world       are    you     still        here?
   bubble             maker's              dream

                        9  C#m
-----0==================|------------------------------------------------==
-----0==================|------------------------------------------------==
===--2==================|--------------6--6--6--6===--6================--==
===--2==================|--------------6--6--6--6===--4================--==
===--0==================|--4===--4===--4--4--4--4===--4================--==
------------------------|------------------------------------------------==
                                                                     And
                                                                   Moved

10  E                                            11  F#7/11
|------------------------------------------------|------------------------==
|------------------------------------------------|------------------------==
|--------------6--6--6--6===--6==================|--------------3--3--3--3==
|--------------6--6--6--6===--4==================|--------------4--4--4--4==
|--------------7--7--7--7===--7==================|--------------4--4--4--4==
|--0===--0=======================================|--2===--2=============--==
   are               we                          illuminating?
   on                         by      winds      of      everything

                        12 A9
-----0==================|-----------------------------0================--==
-----0==================|-----------------------------0================--==
===--3==================|--------------4--4--4--4===--2================--==
===--4==================|--------------2--2--2--2===--2================--==
===--4==================|--0===--0===--0--0--0--0===--0================--==
======------------------|------------------------------------------------==
                                                                   When
                                                                   As

13  C#m                                          14  E
|------------------------------------------------|------------------------==
|------------------------------------------------|------------------------==
|--------------6--6--6--6===--6==================|--------------6--6--6--6==
|--------------6--6--6--6===--4==================|--------------6--6--6--6==
|--4===--4===--4--4--4--4===--4==================|--------------7--7--7--7==
|------------------------------------------------|--0===--0=============--==
   love                                           becomes
   we                                             deny

                        15  F#7/11
------------------------|-----------------------------0================--==
------------------------|-----------------------------0================--==
===--6==================|--------------3--3--3--3===--3================--==
===--4==================|--------------4--4--4--4===--4================--==
===--7==================|--------------4--4--4--4===--4================--==
========================|--2===--2=====================------------------==
                     a     delicate
                     that  love                      is    still   the

16 A9                                            17  C#m
|-----------------------------0==================|------------------------==
|-----------------------------0==================|------------------------==
|--------------4--4--4--4===--2==================|--------------6--6--6--6==
|--------------2--2--2--2===--2==================|--------------6--6--6--6==
|--0===--0===--0--0--0--0===--0==================|--4===--4===--4--4--4--4==
|------------------------------------------------|------------------------==
   display                                       So weak
   key                                     Not  as  weak

                        18  E
------------------------|------------------------------------------------==
------------------------|------------------------------------------------==
===--6==================|--------------6--6--6--6===--6================--==
===--4==================|--------------6--6--6--6===--4================--==
===--4==================|--------------7--7--7--7===--7================--==
------------------------|--0===--0=====================================--==
                       dissolved                                   by
                       as  we                              make   him

19 F#7/11                                        20 A9
|-----------------------------0==================|------------------------==
|-----------------------------0==================|------------------------==
|--------------3--3--3--3===--3==================|--------------4--4--4--4==
|--------------4--4--4--4===--4==================|--------------2--2--2--2==
|--------------4--4--4--4===--4==================|--0===--0===--0--0--0--0==
|--2===--2=======================================|------------------------==
   anything
   out   to   be

                        21 D9
-----0==================|--0===============--0=========================--==
-----0==================|--3===============--3=========================--==
===--2==================|--2===============--2=========================--==
===--2==================|--0===============--0=========================--==
===--0==================|------------------------------------------------==
------------------------|------------------------------------------------==
                  CHORUS:                                          Love

22 A9                                            23 Bsus
|--0===============--0===========================|--0===============--0=--==
|--0===============--0===========================|--0===============--0=--==
|--2===============--2===========================|--4===============--4=--==
|--2===============--2===========================|--4===============--4=--==
|--0===============--0===========================|--2===============--2=--==
|------------------------------------------------|------------------------==
   lies    here      waiting                     all                 alone

                        24 C#m
========================|--0===============--0=========================--==
========================|--0===============--0=========================--==
========================|--6===============--6=========================--==
========================|--6===============--6=========================--==
========================|--4===============--4=========================--==
------------------------|------------------------------------------------==


25 D9                                            26 A9
|--0===============--0===========================|--0===============--0=--==
|--3===============--3===========================|--0===============--0=--==
|--2===============--2===========================|--2===============--2=--==
|--0===============--0===========================|--2===============--2=--==
|------------------------------------------------|--0===============--0=--==
|------------------------------------------------|------------------------==
                                        Can    a    king   be    a    king

                        27 Bsus
========================|--0===============--0=========================--==
========================|--0===============--0=========================--==
========================|--4===============--4=========================--==
========================|--4===============--4=========================--==
========================|--2===============--2=========================--==
------------------------|------------------------------------------------==
               weighed     down?

28 Bsus/F#                                       29 A                 E
|--0===============--0===========================|------------------------==
|--0===============--0===========================|------------------------==
|--4===============--4===========================|------------------------==
|--4===============--4===========================|--7===============--6=--==
|--2===============--2===========================|--7===============--7=--==
|--2===============--2===========================|------------------------==
                repeat bars 5 - 28 for 2nd verse |
                and another chorus before bar 29 |

                        30 G                 A
------------------------|------------------------------------------------==
------------------------|------------------------------------------------==
------------------------|------------------------------------------------==
========================|--5===============--7=========================--==
========================|--5===============--7=========================--==
------------------------|------------------------------------------------==
                   Weighed down

31 A                 E                           32 G                 A
|------------------------------------------------|------------------------==
|------------------------------------------------|------------------------==
|------------------------------------------------|------------------------==
|--7===============--6===========================|--5===============--7=--==
|--7===============--7===========================|--5===============--7=--==
|------------------------------------------------|------------------------==
                                            Weighed down


                        33 A                 E
------------------------|------------------------------------------------==
------------------------|------------------------------------------------==
------------------------|------------------------------------------------==
========================|--7===============--6=========================--==
========================|--7===============--7=========================--==
------------------------|------------------------------------------------==
                   Weighed down

34 G                 A                           35 A                 E
|------------------------------------------------|------------------------==
|------------------------------------------------|------------------------==
|------------------------------------------------|------------------------==
|--5===============--7===========================|--7===============--6=--==
|--5===============--7===========================|--7===============--7=--==
|------------------------------------------------|------------------------==
                                            Weighed down...

            
            
Suggest correction
Creating personal tab
Creating personal tab
You can edit any tab online and save it as your Personal.

You can edit, replace or remove any tab part or add personal notes – all changes will be seen only by you.

Personal tabs can be accessed anytime from any device, even offline.
Learn more »
Give kudos to tab author, rate the tab!
1 2 3 4 5
comments
print report bad tab
guest
Wanna post a correction for this tab? Suggest correction