Oops, an error
Loading. Please wait.

Work tab

version 2
version 2

Whole song

Interactive

1,829 views 1 this week
6 commentsread comments
1 2 3 4 5
2 more votes to show rating
add to favorites
×
Save as Personal and add changes to this tab that will be seen only by you. Learn more ›
×
You can save this tab as Personal to edit and correct it or add notes. All changes will be seen only by you. Learn more »
launch autoscroll
font size
0
reset
how to read this tab
guitar tuner
edit
Autoscroll
slow
fast
+/-
esc
set tempo
stop
Author
ive yet to find any other tabs of this song anywhere else. it took me a while to figure 
out, but im very sure thats its very accurate.

Work- Jars of Clay

*= Palm mute

Intro- play this 2x
E-------------------------------------------------------------------|
B-------------------------------------------------------------------|
G-7--7--7--7--9--9--9--9-10-10-10-10-12-12-12-12-10-10-10-----------|
D-0--0--0--0--0--0--0--0--0--0--0--0--0--0--0--0-10-10-10-----------|
A-------------------------------------------------8--8--8-----------|
E-------------------------------------------------8--8--8-----------|

---------------------------------------------------------------------------|
---------------------------------------------------------------------------|
-7--7--7--7--9--9--9--9-10-10-10-10-12-12-12-12-14-14-14-14-15-15-15-15-14-|
-0--0--0--0--0--0--0--0--0--0--0--0--0--0--0--0--0--0--0--0--0--0--0--0--0-|
---------------------------------------------------------------------------|
---------------------------------------------------------------------------|

Verse-2x
E--------------------------------------------------------------------------|
B--------------------------------------------------------------------------|
G-10-10-10--7--7--7--7--7-10-10-10--7--7--7--7--7-10-10-10--7--7--7--7--7--|
D--0--0--0--0--0--0--0--0--0--0--0--0--0--0--0--0--0--0--0--0--0--0--0--0--|
A--------------------------------------------------------------------------|
E--------------------------------------------------------------------------|

--------------------|
--------------------|
-10-10-10-10-10-----|
-10-10-10-10-10-----|
--8--8--8--8--8-----|
--8--8--8--8--8-----|

Pre-Chorus
E----------------------------------------------------------|
B----------------------------------------------------------|
G-10~----------5~--------3~---3-3-x-3-3-x-3-3-x-3-3--------|
D-10~----------5~--------3~---3-3-x-3-3-x-3-3-x-3-3--------|
A--8~----------3~--------1~---1-1-x-1-1-x-1-1-x-1-1--------|
E--8~----------3~--------1~---1-1-x-1-1-x-1-1-x-1-1--------|

Chorus
E----------------------------------------------------------|
B----------------------------------------------------------|
G-33333333-55555555-77777777-10-10-10-10-10-10-10-10-------|
D-33333333-55555555-77777777-10-10-10-10-10-10-10-10-------|
A-11111111-33333333-55555555--8--8--8--8--8--8--8--8-------|
E----------------------------------------------------------|
  ******** ******** ********  *  *  *  *  *  *  *  *

Verse- same

Pre-chorus- same

Chorus- same


Bridge/Solo
E---------------------------------------------------------------------------|
B---------------------------------------------------------------------------|
G-7-7-7-7-9-9-9-9-7-7-7-7-9-9-9-9-10-10-10-10-12-12-12-12-10-10-10-10-12-12-|
D-0-0-0-0-0-0-0-0-0-0-0-0-0-0-0-0--0--0--0--0--0--0--0--0--0--0--0--0--0--0-|
A---------------------------------------------------------------------------|
E---------------------------------------------------------------------------|

----------------------------------------------------------------------------|
----------------------------------------------------------------------------|
-12-12-12-12-12-12-14-14-14-14-12-12-12-12-14-14-14-14-14-14-14-14-12-12-12-|
--0--0--0--0--0--0--0--0--0--0--0--0--0--0--0--0--0--0--0--0--0--0--0--0--0-|
----------------------------------------------------------------------------|
----------------------------------------------------------------------------|

--------------------------------------------------------------------------|
--------------------------------------------------------------------------|
-12-10-10-10-10--9--9--9--9--7--7--7--7--7--7--7--7--7--7--7--7-xxxxxx----|
--0--0--0--0--0--0--0--0--0--0--0--0--0--0--0--0--0--0--0--0--0-xxxxxx----|
-----------------------------------------------------0--0--0--0-xxxxxx----|
----------------------------------------------------------------xxxxxx----|


Final Chorus (more rocky)
E-----------------------------------------------------------------------------------|
B-----------------------------------------------------------------------------------|
G-----------------------------------------------------------10-10-10-10-10-10-10-10-|
D-88888888-10-10-10-10-10-10-10-10--12-12-12-12-12-12-12-12-10-10-10-10-10-10-10-10-|
A-88888888-10-10-10-10-10-10-10-10--12-12-12-12-12-12-12-12--8--8--8--8--8--8--8--8-|
E-66666666--8--8--8--8--8--8--8--8--10-10-10-10-10-10-10-10-------------------------|

in the final chorus i changed the notes because they sound more rocky. but you can play 
the other way too without the palm muting. i worked hard on this tab so please rate it 
comment it. thanks.

            
            
Suggest correction
Creating personal tab
Creating personal tab
You can edit any tab online and save it as your Personal.

You can edit, replace or remove any tab part or add personal notes – all changes will be seen only by you.

Personal tabs can be accessed anytime from any device, even offline.
Learn more »
Give kudos to tab author, rate the tab!
1 2 3 4 5
comments
print report bad tab
6 comments total. Showing first comments.
0 reply
jwiatt 10 May 29, 2007 03:23 PM

The intro should go like this
E---------------------------------------------
B---------------------------------------------
G-4-4-4-4---6-6-6-6--7-7-7-7--9-9-9-9--7-7-7-7
D-x-x-x-x---x-x-x-x--x-x-x-x--x-x-x-x--x-x-x-x
A-2-2-2-2---4-4-4-4--5-5-5-5--7-7-7-7--5-5-5-5
E---------------------------------------------

E---------------------------------------------------------------------------
B---------------------------------------------------------------------------
G-4-4-4-4--6-6-6-6--7-7-7-7--11-11-11-11--12-12-12-12--11-11-11-11--9-9-9-9-
D-x-x-x-x--x-x-x-x--x-x-x-x---x--x--x--x---x--x--x--x---x--x--x--x--x-x-x-x-
A-2-2-2-2--4-4-4-4--5-5-5-5---9--9--9--9---10-10-10-10--9--9--9--9--7-7-7-7-
E---------------------------------------------------------------------------

0 reply
shortytwig1 193 May 29, 2007 05:02 PM

um.. i dont think so, it should go my way. nice try tho.

0 reply
Sterbob23 50 Jun 03, 2007 07:10 PM

I'm gonna have to agree with jwiatt. Either you're tone-deaf or you can't recognize harmony. Maybe both? Either way, your tab is correct in the sense of progression, but it's in the wrong key. Try playing along with the song with your version, then try that one. I figured this out by ear in about 5 seconds, not that hard, just find the base note, which by the way, is B. Good work jwiatt. But good work shorty, it's correct in progression, just find the right key.

guest
You may want to rate the tab now too:
select rating
Wanna post a correction for this tab? Suggest correction