Oops, an error
Loading. Please wait.

Angela Tab

version 1
version 1

Whole song

8,325 views 15 this week
3 commentsread comments
1 2 3 4 5
x 10
add to favorites
launch autoscroll
font size
0
reset
how to read this tab
guitar tuner
×
Best way to learn
"Angela"
Autoscroll
slow
fast
+/-
esc
set tempo
stop
Author
Difficulty
  follow
novice
Well I was looking all over the internetz and I noticed nobody has tabbed this whole 
So I decided to for all you pplz who want it.

Arist: Jarvis Cocker
Song: Angela
Tabbed by: Arsid

Tuning: Standard EADGBe


Main Riff:
e|-----------------------------------| repeat this    |---------|
B|-----------------------------------| several times  |---------|
G|-----------------------------------| then end with  |---------|
D|-----------------------------------| ------------>  |---------|
A|-----------------------------3-----|                |---------|
E|-3-----5-5---5-5---5-5---5-5---5-0-|                |-3---5-5-|

Quiet Part Riff:
When he goes "Angelaaa.....Oh Angelaaaaaaaa" play this.
e|-----------------------------|
B|-----------------------------|
G|-----------------------------|
D|-----5-------2---------------|
A|-----5-------2---------------|
E|-----3-------0---------------|

Bridge:
e|-------5-5-5-5-----------------------------------------|
B|-------5-5-5-5------5-5-5-5-5--------------------------|
G|--------------------5-5-5-5-5--------------------------| h=hammer
D|---------------7---7----------7---7---5h6h7---5h6h7----|
A|-------------------------------------------------------|
E|-------------------------------------------------------|

Order:
Main Riff x9
Quiet Part Riff x1
Main Riff x9
Quiet Part Riff x1
Bridge x4
Quiet Part Riff x1
Main Riff x8

And that's it! Pretty easy song. Please rate and comments welcome!
Suggest correction
comments
print report bad tab
3 comments total.
+2 reply
spookluke 10 Oct 19, 2009 09:33 AM

A kick ass song and a kick ass tab! Nice one matey!

0 reply
Arsid 95 Aug 23, 2011 02:44 PM

|-------|
|-------|
|-------|
|--5----|
|--5----|
|--3----|

0 reply
any1canplay 10 Jan 15, 2012 01:11 PM

I heard this song on that new game Rocksmith and it is just like this. PERFECT!!!

guest
You may want to rate the tab now too:
select rating
Wanna post a correction for this tab? Suggest correction