Oops, an error
Loading. Please wait.

Ya No Quiero Mas Ska Bass Tab

version 1
version 1

Whole song

Interactive

by Jas
65 views 1 this week
no commentswrite comment
1 2 3 4 5
3 more votes to show rating
add to favorites
launch autoscroll
font size
0
reset
guitar tuner
Autoscroll
slow
fast
+/-
esc
set tempo
stop
Help us to improve Ultimate-Guitar.com Take our survey!
×
YA NO QUIERO MÁS SKA
JAS
TAB DE BAJO POR ROSABETH


> INTRO

  MIm
G|------------------------------------|
D|------------------------------------|
A|------2------2------2--------2------|
E|--0-3----0-3----0-3----0-2-3--------|

  SOL
G|------------------------------------|
D|------------------------------------|
A|--------------------------------2---|
E|--3-3-3-3-3-3-3-3-3-3-3-3-3-1-3-----|

(X2)

> INTRO 2

  LAm
G|------------------------------------|
D|------2------2------2--------2------|
A|--0-3----0-3----0-3----0-2-3--------|
E|------------------------------------|

  MIm
G|------------------------------------|
D|------------------------------------|
A|------2------2------2--------2------|
E|--0-3----0-3----0-3----0-2-3--------|

  LAm
G|------------------------------------|
D|------2------2------2--------2------|
A|--0-3----0-3----0-3----0-2-3--------|
E|------------------------------------|

  SIm
G|------------------------------------|
D|------------------------------------|
A|--2-2-2-2-2-3-2-0-2-----------------|
E|------------------------------------|

> VERSO

  MIm
G|------------------------------------|
D|------------------------------------|
A|-----------2------2------2--------2-|
E|--12/0-0-3----0-3----0-3----0-2-3---|

  SOL
G|------------------------------------|
D|------------------------------------|
A|--------------------------------2---|
E|--3-3-3-3-3-3-3-3-3-3-3-3-3-1-3-----|

  LAm
G|------------------------------------|
D|------2------2------2--------2------|
A|--0-3----0-3----0-3----0-2-3--------|
E|------------------------------------|

  SIm
G|------------------------------------|
D|------------------------------------|
A|--2-2-2-2-2-3-2-0-2-----------------|
E|------------------------------------|

(X3)

> CORO

  LAm
G|------------------------------------|
D|-----------2------2------2--------2-|
A|--12/0-0-3----0-3----0-3----0-2-3---|
E|------------------------------------|

  MIm
G|------------------------------------|
D|------------------------------------|
A|------2------2------2--------2------|
E|--0-3----0-3----0-3----0-2-3--------|

  LAm
G|------------------------------------|
D|------2------2------2--------2------|
A|--0-3----0-3----0-3----0-2-3--------|
E|------------------------------------|

  SIm
G|------------------------------------|
D|------------------------------------|
A|--2-2-2-2-2-3-2-0-2-----------------|
E|------------------------------------|

> SOLO

  MIm
G|------------------------------------|
D|------------------------------------|
A|------2------2------2--------2------|
E|--0-3----0-3----0-3----0-2-3--------|

  SOL
G|------------------------------------|
D|------------------------------------|
A|--------------------------------2---|
E|--3-3-3-3-3-3-3-3-3-3-3-3-3-1-3-----|

  LAm
G|------------------------------------|
D|------2------2------2--------2------|
A|--0-3----0-3----0-3----0-2-3--------|
E|------------------------------------|

  SIm
G|------------------------------------|
D|------------------------------------|
A|--2-2-2-2-2-3-2-0-2-----------------|
E|------------------------------------|

(X2)

> CORO (X1)

> VERSO (X1)

> CORO (X5) AUMENTAR LA VELOCIDAD

> FINAL

G|--------|
D|----2---|
A|--2-----|
E|--------|
Suggest correction
Give kudos to tab author, rate the tab!
1 2 3 4 5
comments
print report bad tab
guest
You may want to rate the tab now too:
select rating
Wanna post a correction for this tab? Suggest correction