Oops, an error
Loading. Please wait.

Let Myself Try Tab

25 views 1 this week
no commentswrite comment
1 2 3 4 5
3 more votes to show rating
add to favorites
launch autoscroll
font size
0
reset
how to read this tab
guitar tuner
Autoscroll
slow
fast
+/-
esc
set tempo
stop
Help us to improve Ultimate-Guitar.com Take our survey!
×
Author
Difficulty
novice
About this tab version
The acoustic version of Jasmine Thompson's "Let Myself Try". I think this is how Ben plays it. Was this info helpful? Yes No
The acoustic version of Jasmine Thompson's "Let Myself Try". I think this is how Ben plays it. 
This is them performing it: 
https://www.youtube.com/watch?v=A71h-rXdKQo&list=PLHLPYS4U6IXQObnjv5edPsMesBWcIoPMY&index=21


[Intro]

    A            E               D
e|--0--------|---0-----------|---2--------|---2---------|
B|--2--------|---0-----------|---3--------|---3---------|
G|--2--------|---1-----------|---2--------|---2---------|
D|-----------|---------------|---0--0--0--|---0--0--0---|    x2
A|--0--0--0--|---------------|------------|-------------|
E|-----------|---0----0--0---|------------|-------------|


[Verse 1]

    A            E               D
e|--0--------|---0-----------|---2--------|---2---------|
B|--2--------|---0-----------|---3--------|---3---------|
G|--2--------|---1-----------|---2--------|---2---------|
D|-----------|---------------|---0--0--0--|---0--0--0---|
A|--0--0--0--|---------------|------------|-------------|
E|-----------|---0----0--0---|------------|-------------|
  I’m gonna find and I’m not coming back,

    A            E               D
e|--0--------|---0-----------|---2--------|---2---------|
B|--2--------|---0-----------|---3--------|---3---------|
G|--2--------|---1-----------|---2--------|---2---------|
D|-----------|---------------|---0--0--0--|---0--0--0---|
A|--0--0--0--|---------------|------------|-------------|
E|-----------|---0----0--0---|------------|-------------|
  and all the white lies that I don’t understand,

    C#m           D              C#m           D          A
e|--4---------|---5----------|---4---------|---5----------0-|
B|--5---------|---7----------|---5---------|---7----------2-|
G|--6---------|---7----------|---6---------|---7----------2-|
D|------------|--------------|-------------|----------------|
A|--4--4--4---|---5--5--5----|---4--4--4---|---5--5--5------|
E|------------|--------------|-------------|----------------|
  All of these walls, well they’re starting to fall

    A                      E                       D
e|--0--------0---------|---0------0------------|---2------2----------|---2-------2-------------|
B|--2----------2----2--|---0---------0----0----|---3---------3----3--|---3----------3-----3----|
G|--2-----2------2-----|---1----1-------1------|---2----2-------2----|---2----2--------2-------|
D|---------------------|-----------------------|---0--0------0-------|---0--0-------0----------|
A|--0--0-------0-------|-----------------------|---------------------|-------------------------|
E|---------------------|---0--0------0---------|---------------------|-------------------------|
    I’m gonna try and I’m not gonna stop,

    A                      E                       D
e|--0--------0---------|---0------0------------|---2------2----------|---2-------2-------------|
B|--2----------2----2--|---0---------0----0----|---3---------3----3--|---3----------3-----3----|
G|--2-----2------2-----|---1----1-------1------|---2----2-------2----|---2----2--------2-------|
D|---------------------|-----------------------|---0--0------0-------|---0--0-------0----------|
A|--0--0-------0-------|-----------------------|---------------------|-------------------------|
E|---------------------|---0--0------0---------|---------------------|-------------------------|
    I’ll give all I have and I’ll take what I’ve got,

    C#m                    D                       C#m                   D                    A
e|--4-------4----------|---5-------5-----------|---4-------4---------|---5------6----------|--5-x|
B|--5----------5----5--|---6-----------6----6--|---5----------5----5-|---6----------6----6-|--5-x|
G|--6----6--------6----|---6----6---------6----|---6----6--------6---|---6----6--------6---|--6-x|
D|---------------------|-----------------------|---------------------|---------------------|--7-x|
A|--4--4-------4-------|---5--5--------5-------|---4--4-------4------|---5--5-------5------|--7-x|
E|---------------------|-----------------------|---------------------|---------------------|--5-x|
    And if all of my dreams, fall apart at the seams,


[Chorus]

    A                      E                       D
e|--0--------0---------|---0------0------------|---2------2----------|---2-------2-------------|
B|--2----------2----2--|---0---------0----0----|---3---------3----3--|---3----------3-----3----|
G|--2-----2------2-----|---1----1-------1------|---2----2-------2----|---2----2--------2-------|
D|---------------------|-----------------------|---0--0------0-------|---0--0-------0----------|
A|--0--0-------0-------|-----------------------|---------------------|-------------------------|
E|---------------------|---0--0------0---------|---------------------|-------------------------|
    It's alright, 'cause in time, I'll be fine, I'm gonna let myself, let myself,

    A                      E                       D
e|--0--------0---------|---0------0------------|---2------2----------|---2-------2-------------|
B|--2----------2----2--|---0---------0----0----|---3---------3----3--|---3----------3-----3----|
G|--2-----2------2-----|---1----1-------1------|---2----2-------2----|---2----2--------2-------|
D|---------------------|-----------------------|---0--0------0-------|---0--0-------0----------|
A|--0--0-------0-------|-----------------------|---------------------|-------------------------|
E|---------------------|---0--0------0---------|---------------------|-------------------------|
    Fall once or twice, I won't mind, I'm gonna let myself, let myself

    F#m                    B                       F#m                    B
e|--2-------2----------|---2-------2-----------|---2--------2----------|--2--------2----------|
B|--2-----------2----2-|---3-----------3----3--|---2------------2----2-|--3-----------3-----3-|
G|--2----2---------2---|---3----3--------3-----|---2-----2---------2---|--3-----3--------3----|
D|---------------------|-----------------------|-----------------------|----------------------|
A|---------------------|-----------------------|-----------------------|----------------------|
E|--2--2--------2------|---2--2--------2-------|---2--2---------2------|--2--2--------2-------|
    Fail and discover, 'cause one way, or another,

    A                      E                       D
e|--0--------0---------|---0------0------------|---2------2----------|---2-------2-------------|
B|--2----------2----2--|---0---------0----0----|---3---------3----3--|---3----------3-----3----|
G|--2-----2------2-----|---1----1-------1------|---2----2-------2----|---2----2--------2-------|
D|---------------------|-----------------------|---0--0------0-------|---0--0-------0----------|
A|--0--0-------0-------|-----------------------|---------------------|-------------------------|
E|---------------------|---0--0------0---------|---------------------|-------------------------|
    I'll be fine, it's alright, in this life, I'm gonna let myself, let myself...


[Verse 2]

    A                      E                       D
e|--0--------0---------|---0------0------------|---2------2----------|---2-------2-------------|
B|--2----------2----2--|---0---------0----0----|---3---------3----3--|---3----------3-----3----|
G|--2-----2------2-----|---1----1-------1------|---2----2-------2----|---2----2--------2-------|
D|---------------------|-----------------------|---0--0------0-------|---0--0-------0----------|
A|--0--0-------0-------|-----------------------|---------------------|-------------------------|
E|---------------------|---0--0------0---------|---------------------|-------------------------|
    If I'm gonna love maybe I'm gonna lose,

    A                      E                       D
e|--0--------0---------|---0------0------------|---2------2----------|---2-------2-------------|
B|--2----------2----2--|---0---------0----0----|---3---------3----3--|---3----------3-----3----|
G|--2-----2------2-----|---1----1-------1------|---2----2-------2----|---2----2--------2-------|
D|---------------------|-----------------------|---0--0------0-------|---0--0-------0----------|
A|--0--0-------0-------|-----------------------|---------------------|-------------------------|
E|---------------------|---0--0------0---------|---------------------|-------------------------|
    If I'm gonna touch maybe I'm gonna bruise,

    C#m                    D                       C#m                   D                    A
e|--4-------4----------|---5-------5-----------|---4-------4----------|--5------6-----------|-5-x-|
B|--5----------5----5--|---6-----------6----6--|---5----------5----5--|--6----------6----6--|-5-x-|
G|--6----6--------6----|---6----6---------6----|---6----6--------6----|--6----6--------6----|-6-x-|
D|---------------------|-----------------------|----------------------|---------------------|-7-x-|
A|--4--4-------4-------|---5--5--------5-------|---4--4-------4-------|--5--5-------5-------|-7-x-|
E|---------------------|-----------------------|----------------------|---------------------|-5-x-|
    'cause all of these scars, they're all that we are,



[Chorus]

    A                      E                       D
e|--0--------0---------|---0------0------------|---2------2----------|---2-------2-------------|
B|--2----------2----2--|---0---------0----0----|---3---------3----3--|---3----------3-----3----|
G|--2-----2------2-----|---1----1-------1------|---2----2-------2----|---2----2--------2-------|
D|---------------------|-----------------------|---0--0------0-------|---0--0-------0----------|
A|--0--0-------0-------|-----------------------|---------------------|-------------------------|
E|---------------------|---0--0------0---------|---------------------|-------------------------|
    It's alright, 'cause in time, I'll be fine, I'm gonna let myself, let myself,

    A                      E                       D
e|--0--------0---------|---0------0------------|---2------2----------|---2-------2-------------|
B|--2----------2----2--|---0---------0----0----|---3---------3----3--|---3----------3-----3----|
G|--2-----2------2-----|---1----1-------1------|---2----2-------2----|---2----2--------2-------|
D|---------------------|-----------------------|---0--0------0-------|---0--0-------0----------|
A|--0--0-------0-------|-----------------------|---------------------|-------------------------|
E|---------------------|---0--0------0---------|---------------------|-------------------------|
    Fall once or twice, I won't mind, I'm gonna let myself, let myself



    F#m                    B                       F#m                    B
e|--2-------2----------|---2-------2-----------|---2--------2----------|--2--------2----------|
B|--2-----------2----2-|---3-----------3----3--|---2------------2----2-|--3-----------3-----3-|
G|--2----2---------2---|---3----3--------3-----|---2-----2---------2---|--3-----3--------3----|
D|---------------------|-----------------------|-----------------------|----------------------|
A|---------------------|-----------------------|-----------------------|----------------------|
E|--2--2--------2------|---2--2--------2-------|---2--2---------2------|--2--2--------2-------|
    Fail and discover, 'cause one way, or another,

    A                      E                       D
e|--0--------0---------|---0------0------------|---2------2----------|---2-------2-------------|
B|--2----------2----2--|---0---------0----0----|---3---------3----3--|---3----------3-----3----|
G|--2-----2------2-----|---1----1-------1------|---2----2-------2----|---2----2--------2-------|
D|---------------------|-----------------------|---0--0------0-------|---0--0-------0----------|
A|--0--0-------0-------|-----------------------|---------------------|-------------------------|
E|---------------------|---0--0------0---------|---------------------|-------------------------|
    I'll be fine, it's alright, in this life, I'm gonna let myself, let myself...



[Bridge]

    A                      E                       D
e|--0--------0---------|---0------0------------|---2------2----------|---2-------2-------------|
B|--2----------2----2--|---0---------0----0----|---3---------3----3--|---3----------3-----3----|
G|--2-----2------2-----|---1----1-------1------|---2----2-------2----|---2----2--------2-------|
D|---------------------|-----------------------|---0--0------0-------|---0--0-------0----------|
A|--0--0-------0-------|-----------------------|---------------------|-------------------------|
E|---------------------|---0--0------0---------|---------------------|-------------------------|
    'nd who says perfect can't be little things, little things

    A                      E                       D                                             Dm
e|--0--------0---------|---0------0------------|---2------2----------|---2-------2-------------|-1-5-|
B|--2----------2----2--|---0---------0----0----|---3---------3----3--|---3----------3-----3----|-3-6-|
G|--2-----2------2-----|---1----1-------1------|---2----2-------2----|---2----2--------2-------|-2-5-|
D|---------------------|-----------------------|---0--0------0-------|---0--0-------0----------|-0---|
A|--0--0-------0-------|-----------------------|---------------------|-------------------------|-----|
E|---------------------|---0--0------0---------|---------------------|-------------------------|-----|
    I look at you and I see simplicity, in front of me, and that's everything


[Chorus]

    A            E               D
e|--0--------|---0------------|--2--------|---2---------|
B|--2--------|---0------------|--3--------|---3---------|
G|--2--------|---1------------|--2--------|---2---------|
D|-----------|----------------|--0--0--0--|---0--0--0---|
A|--0--0--0--|----------------|-----------|-------------|
E|-----------|---0----0--0----|-----------|-------------|
   It's alright, 'cause in time, I'll be fine, I'm gonna let myself, let myself,

    A                      E                       D
e|--0--------0---------|---0------0------------|---2------2----------|---2-------2-------------|
B|--2----------2----2--|---0---------0----0----|---3---------3----3--|---3----------3-----3----|
G|--2-----2------2-----|---1----1-------1------|---2----2-------2----|---2----2--------2-------|
D|---------------------|-----------------------|---0--0------0-------|---0--0-------0----------|
A|--0--0-------0-------|-----------------------|---------------------|-------------------------|
E|---------------------|---0--0------0---------|---------------------|-------------------------|
    Fall once or twice, I won't mind, I'm gonna let myself, let myself

    F#m                    B                       F#m                    B
e|--2-------2----------|---2-------2-----------|---2--------2----------|--2--------2----------|
B|--2-----------2----2-|---3-----------3----3--|---2------------2----2-|--3-----------3-----3-|
G|--2----2---------2---|---3----3--------3-----|---2-----2---------2---|--3-----3--------3----|
D|---------------------|-----------------------|-----------------------|----------------------|
A|---------------------|-----------------------|-----------------------|----------------------|
E|--2--2--------2------|---2--2--------2-------|---2--2---------2------|--2--2--------2-------|
    Fail and discover, 'cause one way, or another,

    A                      E                       D
e|--0--------0---------|---0------0------------|---2------2----------|---2-------2-------------|
B|--2----------2----2--|---0---------0----0----|---3---------3----3--|---3----------3-----3----|
G|--2-----2------2-----|---1----1-------1------|---2----2-------2----|---2----2--------2-------|
D|---------------------|-----------------------|---0--0------0-------|---0--0-------0----------|
A|--0--0-------0-------|-----------------------|---------------------|-------------------------|
E|---------------------|---0--0------0---------|---------------------|-------------------------|
    I'll be fine, it's alright, in this life, I'm gonna let myself, let myself...

    A                      E                       D
e|--0--------0---------|---0------0------------|---2------2----------|---2-------2-------------|
B|--2----------2----2--|---0---------0----0----|---3---------3----3--|---3----------3-----3----|
G|--2-----2------2-----|---1----1-------1------|---2----2-------2----|---2----2--------2-------|
D|---------------------|-----------------------|---0--0------0-------|---0--0-------0----------|
A|--0--0-------0-------|-----------------------|---------------------|-------------------------|
E|---------------------|---0--0------0---------|---------------------|-------------------------|
    Fall once or twice, I won't mind, I'm gonna let myself, let myself try.


***********************************
| x   Dead note
***********************************
Suggest correction
Give kudos to tab author, rate the tab!
1 2 3 4 5
comments
print report bad tab
guest
You may want to rate the tab now too:
select rating
Wanna post a correction for this tab? Suggest correction