Oops, an error
Loading. Please wait.

Rise Up tab

1,147 views 9 this week
no commentswrite comment
1 2 3 4 5
1 last vote to show rating
add to favorites
×
Save as Personal and add changes to this tab that will be seen only by you. Learn more ›
×
You can save this tab as Personal to edit and correct it or add notes. All changes will be seen only by you. Learn more »
launch autoscroll
font size
0
reset
how to read this tab
guitar tuner
edit
Autoscroll
slow
fast
+/-
esc
set tempo
stop
Author
[Intro]

e|---------------------------------------------------------------------------|
B|--------8-------7\5~--------------------5/7-----7-------8~-----------------|
G|------9-9-------7\5~--------------------5/7-----7-----9-9~-----------------|
D|----9---------------------------------5-------7-----9----------------------|
A|----7-------5-----3-----------------3-------5-----7------------------------|
E|---------------------------------------------------------------------------|


[Verse 1]

Last 3 chords (Am, Bm, C) used in last line of verse (last 3 chords below with e & B string mute)
     Em    D     C     Am    Bm    C
e|---x-----x-----x-----x-----x-----x---
B|---8-----7-----5-----x-----x-----x---
G|---9-----7-----5-----5-----7-----9---
D|---9-----7-----5-----7-----9-----10--
A|---7-----5-----3-----7-----9-----10--
E|---7-----5-----3-----5-----7-----8---

* (insert where there is a star)
e|---------------------------------------------------------------------------|
B|-----8-h10p8-7-8---8-------------------------------------------------------|
G|-----------------9---------------------------------------------------------|
D|---------------------------------------------------------------------------|
A|---------------------------------------------------------------------------|
E|---------------------------------------------------------------------------|

Em           D      C
Wisdom, like water, runs down to my feet
    C             D        Em
The more that you tell me, the less I can sleep
Em        D      C
Time is a weapon that takes every man
   Am        Bm       C     *
Oh let me be young, I won't understand


[Chorus]

             Em    D           C
Rise up like smoke, let the air choke
          C         D                Em *
Mountains crumbling down, oh let them go
            Em  D         C
Rise up the sea, oh let me be
            C          D    Em
And let the waves crash over me


(each section leads straight into next below)
e|--------------------------------------------------------------------------------|
B|--------------------------------------------------------------------------------|
G|--------------------------------------------------------------------------------|
D|--------------------------------------------------------------------------------|
A|----------7--6--5--4-2-/-3--------3-3-2-3-2-3----4---5-6-6h7--7-----------------|
E|-----0-7--------------------------------------------------------0---------------|

e|--------------------------------------------------------------------------------|
B|--------------------------------------------------------------------------------|
G|--------------------------------------------------------------------------------|
D|--------------------------------------------------------------------------------|
A|-------7-7--------7--6--5--4-2-/-3----------3-3-2-3-2-3--4---5-6-6h7--7---------|
E|-----7-----7--0-7-------------------------------------------------------0-------|

e|----------------------------------------------------------------------------------|
B|----------------------------------------------------------------------------------|
G|----------------------------------------------------------------------------------|
D|----------------------------------------------------------------------------------|
A|-----------7--6--5--4-2-/-3--------3-3-2-3-2-3-----4---5-6-6h7--7-----------------|
E|-----0-7----------------------------------------------------------0---------------|

e|----------------------------------------------------------------------------------|
B|----------------------------------------------------------------------------------|
G|----------------------------------------------------------------------------------|
D|----------------------------------------------------------------------------------|
A|------7--7--------7--6--5--4-2-/-3----------3--3-2-3-2-3--4-()-5-6-----7----------|
E|----7------7--0-7--------------------------------------------------0-7------------|

(insert above)
(And let the waves crash over me)


[Verse 2]

Em        D        C
Let go of reasons, surrender to fate
    C        D    Em
The apple of Eden is all yours to taste
Em       D       C
Nobody's perfect and things will be rough
Am            Bm      C         *
Love conquers all, so let there be love


[Chorus]

             Em    D           C
Rise up like smoke, let the air choke
          C         D                Em *
Mountains crumbling down, oh let them go
            Em  D         C
Rise up the sea, oh let me be
            C                D
Rise up the sea, oh let me be
           Em
And let the waves crash over me

(each section leads straight into next below)
e|------------------------------------------------------------------------------------------|
B|------------------------------------------------------------------------------------------|
G|------------------------------------------------------------------------------------------|
D|------------------------------------------------------------------------------------------|
A|----------7--6--5--4-2-/-3--------3-3-2-3--2----3----------4---5-6-6h7--7-----------------|
E|-----0-7------------------------------------------------------------------0---------------|

e|------------------------------------------------------------------------------------------|
B|------------------------------------------------------------------------------------------|
G|------------------------------------------------------------------------------------------|
D|------------------------------------------------------------------------------------------|
A|-------7-7--------7--6--5--4-2-/-3--------------3------3--2-3-2-3--4---5-6-6h7--7---------|
E|-----7-----7--0-7-----------------------------------------------------------------0-------|

e|------------------------------------------------------------------------------------------|
B|------------------------------------------------------------------------------------------|
G|------------------------------------------------------------------------------------------|
D|------------------------------------------------------------------------------------------|
A|-----6-6------7--6--5--4-2-/-3----------3-3---2-3-------2---3--4---5-6-6h7--7-------------|
E|----------0-7-----------------------------------------------------------------0-----------|

e|------------------------------------------------------------------------------------------|
B|------------------------------------------------------------------------------------------|
G|------------------------------------------------------------------------------------------|
D|------------------------------------------------------------------------------------------|
A|-------7-7--------7--6--5--4-2-/-3---------()----3-3-2-------3-2-3--4---5-6-6h7--7--------|
E|-----7-----7--0-7------------------------------------------------------------------0------|


[Outro]

(insert above)Rise up the sea, oh, let me be
And let the waves crash over me

repeat x 2
e|---------------------------------------------------------------------------|
B|--------8-------7\5---------------------5/7-----7-------8------------------|
G|------9-9-------7\5---------------------5/7-----7-----9-9------------------|
D|----9---------------------------------5-------7-----9----------------------|
A|----7-------5-----3-----------------3-------5-----7------------------------|
E|---------------------------------------------------------------------------|

e|---------------------------------------------------------------------------------|
B|---------------------------------------------------------------------------------|
G|---------------------------------------------------------------------------------|
D|---------------------------------------------------------------------------------|
A|----------7--6--5--4-2-/-3--------3-3-2-3-2-3---4-----5-6-6h7--7-----------------|
E|-----0-7---------------------------------------------------------0---------------|


e|---------------------------------------------------------------------------------|
B|---------------------------------------------------------------------------------|
G|---------------------------------------------------------------------------------|
D|---------------------------------------------------------------------------------|
A|-------7-7--------7--6--5--4-2-/-3--------()-3-3--2-3-2-3--4---5-6-6h7--7--------|
E|-----7-----7--0-7---------------------------------------------------------0------|

(insert above on 2nd play through)
Rise up the sea, oh, let me be
And let the waves crash over me



This is my first tab so hope it is somewhat useful to you guys! If you have any 
ideas for improvements please post in the comments below. Enjoy! By Riley Brosnan



************************************

| x  Dead note
| h  Hammer-on
| p  Pull-off
| /  Slide up
| \  Slide down
| ~  Vibrato

************************************



************************************

| x  Dead note
| h  Hammer-on
| p  Pull-off
| /  Slide up
| \  Slide down
| ~  Vibrato
| () 

************************************

            
            
Suggest correction
Creating personal tab
Creating personal tab
You can edit any tab online and save it as your Personal.

You can edit, replace or remove any tab part or add personal notes – all changes will be seen only by you.

Personal tabs can be accessed anytime from any device, even offline.
Learn more »
Give kudos to tab author, rate the tab!
1 2 3 4 5
comments
print report bad tab
guest
You may want to rate the tab now too:
select rating
Wanna post a correction for this tab? Suggest correction