Oops, an error
Loading. Please wait.

Big Green Tractor Tab

version 2
version 2

Intro

Whole song

14,825 views 1 this week
1 commentread comment
1 2 3 4 5
1 last vote to show rating
add to favorites
launch autoscroll
font size
0
reset
how to read this tab
guitar tuner
Autoscroll
slow
fast
+/-
esc
set tempo
stop
Help us to improve Ultimate-Guitar.com Take our survey!
×
For every guy that likes women and tractors.
All credit for this tablature goes to
www.mikesguitarlessons.com


E-----------x-------------------------|
A-----------x-------------------------|
D-9---------x-------------------------|
G---11b-11b-x--11bp9-9h11----11p9-11--|
B-----------12------------------------|
E-------------------------------------|


----------------------------------|
----------------------------------|
-----------11---9h11---11s14s11s9-|
-11p9-11p9-----------9------------|
----------------------------------|
----------------------------------|
the slides are pretty fast, hold 14 then go back down to 11 and 9

b bend
x mute
p pull off
h hammer on
s slide
Suggest correction
Give kudos to tab author, rate the tab!
1 2 3 4 5
comments
print report bad tab
1 comment total.
0 reply
prscustomse24 20 Apr 08, 2010 03:37 PM

its upside down

guest
You may want to rate the tab now too:
select rating
Wanna post a correction for this tab? Suggest correction