Oops, an error
Loading. Please wait.

Big Green Tractor Tab

version 1
version 1

Whole song

Video

30,935 views 12 this week
2 commentsread comments
1 2 3 4 5
1 last vote to show rating
add to favorites
launch autoscroll
font size
0
reset
how to read this tab
guitar tuner
Autoscroll
slow
fast
+/-
esc
set tempo
stop
Help us to improve Ultimate-Guitar.com Take our survey!
×
Difficulty
Tuning
intermediate
D# G# C# F# A# D#
BIG GREEN TRACTOR by JASON ALDEAN:

Intro:
e--------------------------------------------------------------|
B--------------------------------------------------------------|
G-12-12---14-12-10-7-12---12-10-12-10-8-10-7-6---6-8-10-12-8---|
D--------------------------------------------------------------|
A--------------------------------------------------------------|
E--------------------------------------------------------------|

After 1st Chorus:
e--------------------------------------------------------------|
B---------------------------13--13-----------------------------|
G-12-12---14-12-10-7-12---12--13--12---------------------------|
D--------------------------------------------------------------|
A--------------------------------------------------------------|
E--------------------------------------------------------------|

After 2nd Chorus:
e----------------------------------------------------------------------------|
B----------------------------------14----------12-14-------------------------|
G-12-12---14-12-10-7-12---12-13-14----10-11-12-------12-8-8-6-6-4----3-------|
D----------------------------------------------------------------2-4---3-4-6-|
A----------------------------------------------------------------------------|
E----------------------------------------------------------------------------|

e---------------------------------------------------------------------------|
B---------------------------------------------------------------------------|
G-5-------------------------------------------------------------------------|
D---5-6-8-7-8-10-9-10-------------------------------------------------------|
A---------------------------------------------------------------------------|
E---------------------------------------------------------------------------|

After Third Chorus repeat first tab from begining of the song. That's it, Enjoy!!!

SINCERELY,
GUITARSLINGER
Suggest correction
Give kudos to tab author, rate the tab!
1 2 3 4 5
comments
print report bad tab
2 comments total.
0 reply
barrymiles 767 Dec 05, 2009 01:19 PM

wow thats pretty bad

0 reply
warpath88 30 Apr 26, 2010 03:53 PM

This was my first tab, don't get onto me for it!!!
It does suck though.

SINCERELY,
GUITARSLINGER (WARPATH)

guest
You may want to rate the tab now too:
select rating
Wanna post a correction for this tab? Suggest correction