Oops, an error
Loading. Please wait.

Big Green Tractor Tab

version 2
version 2

Whole song

Video

9,165 views 1 this week
1 commentread comment
1 2 3 4 5
please rate
add to favorites
launch autoscroll
font size
0
reset
how to read this tab
guitar tuner
Autoscroll
slow
fast
+/-
esc
set tempo
stop
Help us to improve Ultimate-Guitar.com Take our survey!
×
Difficulty
intermediate
 intro
 e---------------------------------------------------------------|
 B---------------------------------------------------------------|
 G-12-12---15-12-10-8-10---10-9-8-12-10-8-10-8-5---3-5-8-8-5-----|
 D---------------------------------------------------------------|
 A---------------------------------------------------------------|
 E---------------------------------------------------------------|
 8 measures of 2/4 time then
 She had on a new....She was lookin....Said What you...
 e---------------------------------------------------------------|
 B---------------------------------------------------------------|
 G---12--------------10-----------------7b-----------------------|
 D---------------------------------------------------------------|
 A---------------------------------------------------------------|
 E---------------------------------------------------------------|
 Chorus
 Take you... Tractor.........Climb Up In....Want To.........
 e---------------------------------------------------------------|
 B---------------------------------------------------------------|
 G-8---------8b8-10----------8--------------8b8-10---------------|
 D---------------------------------------------------------------|
 A---------------------------------------------------------------|
 E---------------------------------------------------------------|

 After 1st Chorus
 e---------------------------------------------------------------|
 B-------------------------11-13-11------------------------------|
 G-12-12---15-12-10-8-10------------10b10-8----------------------|
 D---------------------------------------------------------------|
 A---------------------------------------------------------------|
 E---------------------------------------------------------------|

 2nd verse all rest

 Chorus
 Take you... Tractor.........Climb Up In....Want To.........
 e---------------------------------------------------------------|
 B---------------------------------------------------------------|
 G-8---------8b8-10----------8--------------8b8-10---------------|
 D---------------------------------------------------------------|
 A---------------------------------------------------------------|
 E---------------------------------------------------------------|

 After 2nd Chorus
 e---------------------------------------------------------------|
 B------------------------------11--------13b-11-----------------|
 G-12-12---15-12-10-8-10-10-9-8----10-9-8--------10-8------------|
 D----------------------------------------------------10-8-------|
 A---------------------------------------------------------8-6---|
 E---------------------------------------------------------------|

 e---------------------------------------------------------------|
 B---------------------------------------------------------------|
 G------------7-8------12-10-8------8----------------------------|
 D-----6-8-10-----10-8---------8-10------------------------------|
 A-6-8-----------------------------------------------------------|
 E---------------------------------------------------------------|

 You Can....Want To
 e---------------------------------------------------------------|
 B----------11---------------------------------------------------|
 G-8----------8b8-10---------------------------------------------|
 D---------------------------------------------------------------|
 A---------------------------------------------------------------|
 E---------------------------------------------------------------|

 e---------------------------------------------------------------|
 B---------------------------------------------------------------|
 G-12-12---15-12-10-8-10---10-9-8-12-10-8-10-8-5---3-5-8-8-8-----|
 D---------------------------------------------------------------|
 A---------------------------------------------------------------|
 E---------------------------------------------------------------|

 e---------------------------------------------------------------|
 B---------------------------------------------------------------|
 G-12-12---15-12-10-8-10---10-9-8-12-10-8-10-8-5---3-5-8-8-5-----|
 D---------------------------------------------------------------|
 A---------------------------------------------------------------|
 E---------------------------------------------------------------|

 b=bend
 Enjoy
Suggest correction
What's this?
You can suggest a correction to this tab. Community and Mods will review your correction and vote to approve or reject it.
comments
We did not receive enough feedback on this tab! Please rate:
print report bad tab
1 2 3 4 5
1 comment total.
0 reply
nmc1234 1,268 wrote on December 18 2010, 09:42 am

dude, the first part of your intro sounds like seven nations army.

guest
You may want to rate the tab now too:
select rating
Please do not post tabs as comments. Select "correction" instead!