Oops, an error
Loading. Please wait.

Big Green Tractor Tab

version 3
version 3

Whole song

Video

3,384 views 6 this week
no commentswrite comment
1 2 3 4 5
2 more votes to show rating
add to favorites
launch autoscroll
font size
0
reset
how to read this tab
guitar tuner
Autoscroll
slow
fast
+/-
esc
set tempo
stop
Help us to improve Ultimate-Guitar.com Take our survey!
×
Author
Difficulty
novice
I learn by ear. I'm quite good at it. Shouldn't be too many mistakes, but feel free to
point them out. Thanks and enjoy! PS: This is a very thorough tab, for those who want to
know the entire song, nearly note-for-note. I've put the chords next to each area, for 
those who simply want to jam to it.


INTRO:
b=bend
m=mute
r=release bend
h=hammer
p=pull
s=slide

E--------------------------------------------------|
A--------------------------------------------------|
D--------------------------------------------------|
G-11b13m--11b13------11b13r11--9---9h11------------|
B----------------12--------------------------------|
E--------------------------------------------------|

E-----------------------------------------------------|
A-----------------------------------------------------|
D-----------------------------11--9--11---------------|
G--11-9--11b13--11--9--11--9------------8b9m--8b9r--6-|
B-----------------------------------------------------|
E-----------------------------------------------------|


VERSE: E, G#m, C#m, A
E
She had a shiny little Beemer with the rag top down
G#m
Sittin' in the drive but she wouldn't get out
C#m
The dogs were all barkin' and waggin' around
A
And I just laughed and said y'all get in

E
She had on a new dress and she curled her hair
G#m
She was looking too good not to go somewhere
C#m
Said "what you want to do, baby, I don't care
     A                         B
We can go to the show, we can stay out here

CHORUS: E, B, F#m, A
E
And I can take you for a ride on my big green tractor
B
We can go slow or make it go faster
F#m
Down through the woods and out to the pasture
A
'Long as I'm with you it really don't matter
E
Climb up in my lap and drive if you want to
B
Girl, you know you got me to hold on to
F#m
We can go to town, but baby if you'd rather
        A                     B
I'll take you for a ride on my big green tractor

FILL:
E------------------------------------------------------------------|
A------------------------------------------------------------------|
D------------------------------------------------------------------|
G-11b13m--11b13-------11b13r11--9--9h11----------11bm--11b13r11--9-|
B-----------------12--------------------12b14r12-------------------|
E------------------------------------------------------------------|



Said we can fire it up and I can show you around
Sit up on the hill and watch the sun go down
When the fireflies are dancing and the moon comes out
We can turn on the lights and head back to the house

Or we can take another ride on my big green tractor
We can go slow or make it go faster
Down through the woods and out to the pasture
'Long as I'm with you it really don't matter

Climb up in my lap and drive if you want to
Girl, you know you got me to hold on to
We can go to town, but baby if you'd rather
I'll take you for a ride on my big green tractor


BRIDGE:
   C#m                   A
(Tractor) Just let me dust off the seat
C#m                       B
Mmm, put your pretty little arms around me
Hell yeah


SOLO:
E-------------------------------------------------|
A-------------------------------------------------|
D-------------------------------------------------|
G-11b13m--11b13------11b13r11---9---9h11----------|
B----------------12-------------------------------|
E-------------------------------------------------|

E-----------------------------------------------------------|
A-----------------------------------------------------7h9p7-|
D--------11-----------11---------------------9h11--9--------|
G-11p9----------11p9----------------9h11--9-----------------|
B------------12-----------12b14r12--------------------------|
E-----------------------------------------------------------|

E-s9--------------------------------------------------------------|
A----7---s11------------------------------------------------------|
D-------------9---11-----------11--------------9--11--------11----|
G----------------------9-11p9-----11b13r11--9---------9--11-----9-|
B-----------------------------------------------------------------|
E-----------------------------------------------------------------|

You can climb up in my lap and drive if you want to
Girl, you know you got me to hold on to
We can go to town, but baby if you'd rather
I'll take you for a ride on my big green tractor

Oh yeah, yeah
We can go to town
We can go another round
On my big green tractor


Have fun!!!
Suggest correction
Give kudos to tab author, rate the tab!
1 2 3 4 5
comments
print report bad tab
guest
You may want to rate the tab now too:
select rating
Wanna post a correction for this tab? Suggest correction