Oops, an error
Loading. Please wait.

Burnin It Down bass

94 views 9 this week
no commentswrite comment
1 2 3 4 5
3 more votes to show rating
add to favorites
×
Save as Personal and add changes to this tab that will be seen only by you. Learn more ›
×
You can save this tab as Personal to edit and correct it or add notes. All changes will be seen only by you. Learn more »
launch autoscroll
font size
0
reset
guitar tuner
edit
Autoscroll
slow
fast
+/-
esc
set tempo
stop
Jason Aldean - Burnin it down

[Intro]

   start at 4th bar of guitar intro
Gb|-------------------|-----------------|-----------------|-----------------|-----------------|
Db|-------------------|-----------------|-----------------|-----------------|-----------------|
Ab|----5--------5-----|-----------------|-----------------|-----------------|---5-5-----5-----|
Eb|-------------------|-----------------|-10_________\--0-|-3-----------3/5-|-----------------|
Bb|-3-----3--3-----3--|-5-------------8-|-----------------|-----------------|-3-----3-3---3---|


[Verse]
    rest 4 bars, then play

Gb|-19----------------|--------------------|------------------|----------------------|
Db|-19p17-------------|-17\16--------------|-17---------------|-16/17\16/17\16-------|
Ab|-------19----------|-------15-------/17-|---------------17-|----------------------|
Eb|-------------------|--------------------|------------------|----------------------|
Bb|-------------------|--------------------|------------------|----------------------|

Gb|-----------------|-----------------|-----------------|-----------------|
Db|-----------------|-----------------|-----------------|-----------------|
Ab|-----------------|-----------------|-----------------|-----------------|
Eb|-----------------|-10_________\--0-|-3-----------3/5-|-----------------|
Bb|-5-------------8-|-----------------|-----------------|-3---------------|



[Chorus]

Gb|-----------------|-----------------|-----------------|------------------|
Db|-----------------|-----------------|-----------------|------------------|
Ab|-----------------|-----------------|-----------------|-5---5------------|
Eb|-----------------|--8-----8\-----0-|-3-----------5/7-|---5-----8-7-5h7--|
Bb|-5-----------7/8-|-----8-----------|-----------------|------------------|

Gb|-----------------|-----------------|-----------------|------------------|
Db|-----------------|-----------------|-----------------|------------------|
Ab|-----------------|-----------------|-----------------|-5----------------|
Eb|-----------------|--8-----8------0-|-3-----------3/5-|---3/5------------|
Bb|-5-------------8-|-----8-----------|-----------------|---------3--------|

Gb|-----------------|-----------------|-----------------|------------------|
Db|-----------------|-----------------|-----------------|------------------|
Ab|-----------------|-----------------|-----------------|-5-7-5------------|
Eb|-----------------|--8-----8------0-|-3-----------5/7-|---------8-7-5h7--|
Bb|/5-------------8-|-----8-----------|-----------------|------------------|

Gb|-----------------|-----------------|-----------------|------------------|
Db|-----------------|-----------------|-----------------|------------------|
Ab|-----------------|-----------------|-----------------|-5-7-5------------|
Eb|-----------------|--8-----8------0-|-3---------------|---------8-7-5h7--|
Bb|/5-------------8-|-----8-----------|-----------------|------------------|

Gb|-----------------|-----------------|-----------------|----------------------|
Db|-----------------|-----------------|-----------------|----19-17p16----------|
Ab|-----------------|-------------3h5-|-----------------|-17----------17-------|
Eb|-----------------|--8-----8--------|-3---------------|----------------------|
Bb|/5-----------7-8-|-----8-----------|-----------------|----------------------|



[Verse 2]

Rest 3 bars, then play
Gb|-----------------|------------------|-------------------|-------------------|-------------------|
Db|-----------------|------------------|-------------------|-------------------|-19-17-------------|
Ab|-5---------------|-19-17-19---------|-15-14-15----------|-------------------|-------19---17h19--|
Eb|-----------------|------------------|-------------------|-15-14-15----------|-------------------|
Bb|-----------------|------------------|-------------------|-------------------|-------------------|

G|---------------------------------------------------------------------------|
D|---------------------------------------------------------------------------|
A|---------------------------------------------------------------------------|
E|---------------------------------------------------------------------------|
B|---------------------------------------------------------------------------|


[Chorus 2]

Gb|-----------------|-----------------|-----------------|------------------|
Db|-----------------|-----------------|-----------------|------------------|
Ab|-----------------|-----------------|-----------------|-5---5------------|
Eb|-----------------|--8-----8\-----0-|-3-----------5/7-|---5-----8-7-5h7--|
Bb|-5-----------7/8-|-----8-----------|-----------------|------------------|

Gb|-----------------|-----------------|-----------------|------------------|
Db|-----------------|-----------------|-----------------|------------------|
Ab|-----------------|-----------------|-----------------|-5----------------|
Eb|-----------------|--8-----8------0-|-3-----------3/5-|---3/5------------|
Bb|-5-------------8-|-----8-----------|-----------------|---------3--------|

Gb|-----------------|-----------------|-----------------|------------------|
Db|-----------------|-----------------|-----------------|------------------|
Ab|-----------------|-----------------|-----------------|-5-7-5------------|
Eb|-----------------|--8-----8------0-|-3-----------5/7-|---------8-7-5h7--|
Bb|/5-------------8-|-----8-----------|-----------------|------------------|

Gb|-----------------|-----------------|-----------------|------------------|
Db|-----------------|-----------------|-----------------|------------------|
Ab|-----------------|-----------------|-----------------|-5-7-5------------|
Eb|-----------------|--8-----8------0-|-3---------------|---------8-7-5h7--|
Bb|/5-------------8-|-----8-----------|-----------------|------------------|

Gb|-----------------|-----------------|-----------------|----------------------|
Db|-----------------|-----------------|-----------------|----19-17----16~------|
Ab|-----------------|-------------3h5-|-----------------|-17-------17----------| play this 2x
Eb|-----------------|--8--------------|-3---------------|----------------------|
Bb|/5-----------7-8-|-----------------|-----------------|----------------------|



[Last Verse]
Gb|------------------|------------------|-------------------|-------------------|
Db|------------------|------------------|-------------------|----19-------------|
Ab|-19-17-19---------|-15-14-15---------|-------------------|-17----17----------|
Eb|------------------|------------------|-15-14-15----------|-------------------| play 2x
Bb|------------------|------------------|-------------------|-------------------|

Gb|--------------------|--------------------|------------------|-------------------|
Db|--------------------|-10-----------------|------------------|----19-------------|
Ab|---------------9h10-|----10-9h10---------|------------------|-17----17----------| play 2x
Eb|-12-10-12---12------|------------8-------|------------------|-------------------|
Bb|--------------------|--------------------|-8--8--8----------|-------------------|



[Outro Chorus]

Gb|-----------------|-----------------|-----------------|------------------|
Db|-----------------|-----------------|-----------------|------------------|
Ab|-----------------|-----------------|-----------------|-5----------------|
Eb|-----------------|-8-----8-8-8---0-|-3-----------3/5-|---5-3/5----------|
Bb|-5-------------8-|----8------------|-----------------|---------3--------|

Gb|-----------------|-------------------|-----------------|------------------|
Db|-----------------|-------------------|-----------------|------------------|
Ab|-----------------|-------------------|-----------------|-5----------------|
Eb|--rest-----------|----10-8-8-8-8-7-0-|-3-----------3/5-|---5-3/5----------|
Bb|-----------------|-------------------|-----------------|---------3--------|

Gb|-----------------|-------------------|-----------------|------------------|
Db|-----------------|-------------------|-----------------|------------------|
Ab|-----------------|-------------------|-----------------|-5-7-5------------|
Eb|-----------------|--8-----8-8-8----0-|-3-----------5/7-|---------8-7-5h7--|
Bb|-5-------------8-|-----8-------------|-----------------|------------------|

Gb|-----------------|-----------------|-----------------|------------------|
Db|-----------------|-----------------|-----------------|------------------|
Ab|-----------------|-----------------|-----------------|-5-7-5------------|
Eb|-----------------|--8-----8------0-|-3---------------|---------8-7-5h7--|
Bb|-5-------------8-|-----8-----------|-----------------|------------------|

Gb|---------------------|-------------------|------------------|-----------------|
Db|---------------------|-------------------|------------------|-----------------|
Ab|----10---------------|----8--------------|------------------|-5-7-5-----------|
Eb|-12----12--10h12\----|-8-----8---8\----0-|-3------------3/5-|--------7-5-7/---|
Bb|---------------------|-------------------|------------------|-----------------|


[Outro]
Gb|------------------|------------------|-------------------|-------------------|
Db|------------------|------------------|-------------------|----19-------------|
Ab|-19-17-19---------|-15-14-15---------|-------------------|-17----17----------|
Eb|------------------|------------------|-15-14-15----------|-------------------|
Bb|------------------|------------------|-------------------|-------------------|

Gb|------------------|------------------|-------------------|-------------------|
Db|------------------|------------------|-------------------|-------------------|
Ab|-19-17-19---------|-15-14-15---------|-------------------|-------------------|
Eb|------------------|------------------|-15-15-15----------|-------------------|
Bb|------------------|------------------|-------------------|-3-----------------|



************************************
KEY

| h   Hammer-on
| p   Pull-off
| /   Slide up
| \   Slide down

************************************
Suggest correction
Creating personal tab
Creating personal tab
You can edit any tab online and save it as your Personal.

You can edit, replace or remove any tab part or add personal notes – all changes will be seen only by you.

Personal tabs can be accessed anytime from any device, even offline.
Learn more »
Give kudos to tab author, rate the tab!
1 2 3 4 5
comments
print report bad tab
guest
You may want to rate the tab now too:
select rating
Wanna post a correction for this tab? Suggest correction