Oops, an error
Loading. Please wait.

Crazy Town Tab

version 1
version 1

Whole song

8,473 views 3 this week
no commentswrite comment
1 2 3 4 5
please rate
add to favorites
launch autoscroll
font size
0
reset
how to read this tab
guitar tuner
Tab Pro tools
  • play this tab
  • loop segment
  • change instrument
  • show fretboard
  • metronome
×
Best way to learn
"Crazy Town"
Autoscroll
slow
fast
+/-
esc
set tempo
stop
Contributor
Intro

Guitar 1 : (Acoustic)
D D C G (listen to the song for the rhythm)

Guitar 2 : (electric)
Lead;
e------------------------------------------|
B------------------------------------------|
G------------------------------------------|
D-3-5--0-3-0-3-5---0-3-0-3-5--0-3-0-3-0~---|
A------------------------------------------|
E------------------------------------------|

Verse 1
Guitar 1 (acoustic)
D               C
Roll into town, step off the bus
G
shake off the where ya came from dust,
D
grab your guitar,
C
walk down the street,
G
sign says nashville tennesee

Pre-Chorus
Guitar 1 :
Bb         C
But I have found....

Guitar 2: (ELECTRIC w/a little distortion just hit each power chord whenever the 
acoustic switches chords)
e------------|
B-------1----|
G-3~----0----|
D-3~----2----|
A-1~----3----|
E------------|

Chorus : Guitar 1
D                  C
It's a crazy town, full of neon dreams
G
Everybody plays, everybody sings
D                C
Hollywood with a touch of twang
G                      Bb    Bb    Bb
To be a star you gotta bang, bang, bang

D                     C
Bend those strings 'til the Hank comes out
G
Make all the drunk girls scream and shout
D           C                                         G
We love it, we hate it, we're all just trying to make it
                  D
In this crazy town

Chorus : Guitar 2 - Electric
you only play on the "bang,bang,bang" part which is where you play
e----------------|
B----------------|
G-3-3-3----------|
D-3-3-3----------|
A-1-1-1----------|
E----------------| W/ ALOT OF DISTORTION
Play Intro 2x

Verse 2/Pre-Chorus same as verse 1

Chorus 2x
and thats it
comments
We did not receive enough feedback on this tab! Please rate:
print report bad tab
1 2 3 4 5
I want to post or [tab]
guest
You may want to rate the tab now too:
select rating
Please do not post tabs as comments. Select "correction" instead!