Oops, an error
Loading. Please wait.

Dont You Wanna Stay Tab

version 1
version 1

Whole song

16,955 views 3 this week
1 commentread comment
1 2 3 4 5
accurate
x 9
add to favorites
launch autoscroll
font size
0
reset
how to read this tab
guitar tuner
Tab Pro tools
  • play this tab
  • loop segment
  • change instrument
  • show fretboard
  • metronome
×
Best way to learn
"Dont You Wanna Stay"
Autoscroll
slow
fast
+/-
esc
set tempo
stop
Contributor
Difficulty
ugc
novice
[Intro:]

e|----------------------2--4------------------------------------------|
B|--2--4--2--4--2--4----------4----4----2----2------------------------|
G|--------------------------------------------------------------------|
D|--------------------------------------------------------------------|
A|--------------------------------------------------------------------|
E|--------------------------------------------------------------------|

e|----------------------2--4-------2----------------------------------|
B|--2--4--2--4--2--4----------4-------2----4--0-----------------------|
G|--------------------------------------------------------------------|
D|--------------------------------------------------------------------|
A|--------------------------------------------------------------------|
E|--------------------------------------------------------------------|

[Verse (here are the tabs and the chords, you can use whichever):]

e|--------------------------------------------------------------------|
B|--------------------------------------------------------------------|
G|------------------------4-------------------------------------------|(2x)  
D|--4--6--4--6--4--6---------6--4----4--------------------------------|
A|--------------------------------------------------------------------|
E|--------------------------------------------------------------------|
    G#m              E               B
    I really hate to let this moment go
    G#m                        E             B
    Touching your skin and your hair falling slow

e|--------------------------------------------------------------------|
B|--------------------------------------------------------------------|
G|-----4--6--4-------6--4--0------------------------------------------|
D|--6------------6----------------------------------------------------|
A|--------------------------------------------------------------------|
E|--------------------------------------------------------------------|
    E                   Em
    When a goodbye kiss feels like this


[Chorus:]
B                    G#m    F#
Don't you wanna stay here a little while
                C#m
Don't you wanna hold each other tight 
                E                F#
Don't you wanna fall asleep with me tonight
B                    G#m    F#
Don't you wanna stay here a little while
            C#m
We can make forever feel this way
E
Don't you wanna stay    


[Instrumental (ALMOST exactly like the intro):]

e|------------------------2--4-------2----------4---------------------|
B|--2--4--2--4--2--4------------4-------2----4------------------------|
G|--------------------------------------------------------------------|
D|--------------------------------------------------------------------|
A|--------------------------------------------------------------------|
E|--------------------------------------------------------------------|

e|------------------------2--4-------2--------------------------------|
B|--2--4--2--4--2--4------------4------2----4--0----------------------|
G|--------------------------------------------------------------------|
D|--------------------------------------------------------------------|
A|--------------------------------------------------------------------|
E|--------------------------------------------------------------------|


[Verse 2:] 

G#m                  E                    B
Let's take it slow I don't wanna move too fast

G#m                   E                  B
Don't wanna just make love, I wanna make love last

E                                Em
When you’re off this cab, it’s a sad goodbye


[Chorus (2x):]
B                    G#m    F#
Don't you wanna stay here a little while
                C#m
Don't you wanna hold each other tight 
                E                F#
Don't you wanna fall asleep with me tonight
B                    G#m    F#
Don't you wanna stay here a little while
            C#m
We can make forever feel this way
E                     A
Don't you wanna stay    


   C#m
Oh yeah
B                 A
Oh it feels so perfect baby
                       C#m
Oh it feels so perfect, baby
B                    G#m    F#            C#m
Don't you wanna stay here a little while


[Chorus:]
B                    G#m    F#
Don't you wanna stay here a little while
                C#m
Don't you wanna hold each other tight 
                E                F#
Don't you wanna fall asleep with me tonight
B                    G#m    F#
Don't you wanna stay here a little while
            C#m
We can make forever feel this way
E                                          
Don't you wanna stay    


[Instrumental:]

G#m  E  B  F#


                G#m   E  B  F#
Don't you wanna stay
G#m   E     B     F#
Yeah, yeah, yeah 
G#m   E     B     F#
Yeah, yeah, yeah 


[Instrumental:]
G#m  E  B  F#
G#m  E  B  F#
G#m  E  B
comments
print report bad tab
1 comment total.
0 reply
dsrobidoux123 wrote on April 26 2015, 09:57 pm

Perfect tab

I want to post or [tab]
guest
You may want to rate the tab now too:
select rating
Please do not post tabs as comments. Select "correction" instead!