Oops, an error
Loading. Please wait.

Heartache That Dont Stop Hurting Tab

2,176 views 3 this week
no commentswrite comment
1 2 3 4 5
x 3
add to favorites
launch autoscroll
font size
0
reset
how to read this tab
guitar tuner
Autoscroll
slow
fast
+/-
esc
set tempo
stop
Help us to improve Ultimate-Guitar.com Take our survey!
×
Author
I've been playing guitar for a few months now, and this is the first time I've 
"officially" tabbed a song by ear. 
This song is easy to play, and has an intro so catchy, I can't believe it isn't on here yet. 
Let me know what you guys think. :)

b-bend *(pitch of bend)*
r-release
v-vibrato
h-hammer on
p-pull off
/-slide up
\-slide down

(Intro) or play through the chords from the chorus [G, D/F#, Asus, Cadd9]
E|------------------------------------------------------------------|
B|--10b(12)vr---12b(13)r-12-10v----8-10h12p10-8------8-10h12p10-8---|
G|-------------------------------9--------------9--9--------------9-|
D|------------------------------------------------------------------|
A|------------------------------------------------------------------|
E|------------------------------------------------------------------|

Cadd9
Ive been here a bunch of times
Cadd9
It all starts with the same old lines
      G             G
Its over, Baby its over

(Riff; optional)
E|----------------------|
B|----------------------|
G|--5h7p5h7-------------|
D|-----------7p5--------|
A|---------------7p5v---|
E|----------------------|

Cadd9
Nothing bout it ever feels good
Cadd9
It knocks you down just like it should
         G                  G
But it goes away, it always goes away
Dm                                    Cadd9
But something about this time feels different

(Lick; optional)
E|--------------|
B|--------------|
G|-------5brbr--|
D|--5h7---------|
A|--------------|
E|--------------|

D/F#               D/B             Cadd9
Just like I'm in a fight Im about to lose

G                                           D/F#
This might be the heartache that dont stop hurtin
              Asus
It just keeps workin on me
              Cadd9
It just keeps pickin on me
     G                                     D/F#
And these might be the tears that keep on fallin
               Asus
That wont stop comin on down
               Cadd9
They wont stop rainin on down
    Em           D/F#              Cadd9
And baby its too early to know for certain
                   D                          G
This might be the heartache that dont stop hurtin

(Continue the G chord for a full measure, followed by a D/F# chord. Or play this 
segment of the intro.) 
E|---------------------------------|
B|--10b(12)vr---12b(13)r-12-10vv\--|
G|---------------------------------|
D|---------------------------------|
A|---------------------------------|
E|---------------------------------|

Cadd9
Man I tried to kill the pain
Cadd9
By shootin whiskey through my brain
       G                     G
But it never works, it only makes it worse
Cadd9
So tonight I'm here again
Cadd9
Throwin punches in the wind
        G                   G
At some enemy, that I cant even see
Dm                                 Cadd9
And I know I dont want to let it have me
     D/F#        D/B              Cadd9
But every time it hits I feel the truth

G                                           D/F#
This might be the heartache that don't stop hurtin
                Asus
It just keeps workin on me
               Cadd9
It just keeps pickin on me
     G                                     D/F#
And these might be the tears that keep on fallin
                Asus
That wont stop comin down
               Cadd9
They wont stop rainin on down
Em            D/F#               Cadd9
Baby its too early to know for certain

(Lick)
E|--------------|
B|--------------|
G|-------5brbr--|
D|--5h7---------|
A|--------------|
E|--------------|
                  D                        G     
This might be the heartache that dont stop hurtin

(Solo) or play a G chord followed by a D chord
E|----------------------------------10-----------|
B|-------------------------------10br-10br-8vvv--|
G|-----7---7---7---7-----------------------------|
D|--7h9-7h9-7h9-7h9------------------------------|
A|------------------------5-5v-------------------|
E|--------------------5h7------------------------|

G
Tomorrow Ill stand up again
    D
And give it my best shot again
C                       D
But tonight it sure feels like
G                               D/F#
these might be the tears that keep on fallin
                 Asus
That wont stop comin down
                 Cadd9
They wont stop rainin on down
Em            D/F#               Cadd9
Baby its too early to know for certain

(Lick)
E|--------------|
B|--------------|
G|-------5brbr--|
D|--5h7---------|
A|--------------|
E|--------------|
                    D                      G                               
This might be the heartache that dont stop hurtin

Then replay the intro once. 
Suggest correction
Give kudos to tab author, rate the tab!
1 2 3 4 5
comments
print report bad tab
guest
You may want to rate the tab now too:
select rating
Wanna post a correction for this tab? Suggest correction