Oops, an error
Loading. Please wait.

Hick Town Tab

version 3
version 3

Interactive

19,085 views 3 this week
2 commentsread comments
1 2 3 4 5
please rate
add to favorites
launch autoscroll
font size
0
reset
how to read this tab
guitar tuner
Tab Pro tools
  • play this tab
  • loop segment
  • change instrument
  • show fretboard
  • metronome
×
Best way to learn
"Hick Town"
Autoscroll
slow
fast
+/-
esc
set tempo
stop
Contributor
Difficulty
intermediate
Intro
e|---------------------------------------------------------|-----------|
B|---------------------------------------------------------|-----------|
G|--6--6--------------------------6--6---------------------|-----------|
D|--6--6----------2--3------------6--6-------------2--4----|---x4------|
A|--4--4-----2--4--------2--4-----4--4------2--4---2--4----|-----------|
E|---------------------------------------------------------|-----------|
1st verse 
e|----------------------------------------------------------------------|  
B|----------------------------------------------------------------------|
G|---------------------------------------6--6---------------------------|
D|---------------------------------2--4--6--6--------2--3--------2--4---|  
A|-----x--x------x--x------x--x----2--4--4--4---2--4------2--4---2--4---|
E|--x--x--x---x--x--x---x--x--x--x--------------------------------------|
                                  bronco

Chorus
e|------------------------------|--------------------------------------|
B|------------------------------|--------------------------------------|
G|------------------------------|--------------------------------------|
D|--1--1--2--4\----1--1--2--4-x3|---12--9--8--7--5--3--1--x------------|
A|--1--1--2--4\----1--1--2--4---|---12--9--8--7--5--3--1--x------------|
E|--0--------------0------------|---10--7--6--5--3--1--0--x------------|
                                                           In a hicktown
Post chorus
e|------------------------------------------------------------------2-4-/-|
B|------------------------------------------------------------------2-4-/-|
G|-6--6----------------6--6--------------6-6--------------6--6------------|
D|-6--6------2-3-------6--6--------2--4--6-6-----2-3------6--6------------|
A|-4--4--2-4-----2-4---4--4---2-4--2--4--4-4--2-4----2-4--4--4--2-4-------|
E|------------------------------------------------------------------------|     

2nd  verse
same as first except when he says “and his woman’s smoking Pall Malls watchin Laura Ingals” play this:
e|--------------------------------------------------------------------|
B|--------------------------------------------------------------------|
G|----------------------------------6-6--------------6-6--------------|
D|-----------------------------2-4--6-6------2-3-----6-6--------------|
A|---x-x------x-x------x-x-----2-4--4-4--2-4----2-4--4-4--2-4--2/3--4~|
E|x--x-x---x--x-x---x--x-x---x----------------------------------------|
                               Ingals
Regular verse 1x

“yeah my buddies and me are goin muddin’”
play this:
e|----------------------------------------------------------6~ ------------|
B|---------------------------------------------3/4---5---6--6~ ------------|
G|-------------------------------------------------------------------------|
D|-------------------------------------------------------------------------|
A|-------x--x-------x--x-------x--x----------------------------------------|
E|--x----x--x----x--x--x----x--x--x----x-----------------------------------|

Chorus 1x

Violin solo play this:

e|----------------------------------------|-----------------------------|
B|----------------------------------------|-----------------------------|
G|----------------------------------------|---9--8--7--6--5~ -----------|
D|--1--1--2--4~ ----1--4--4--4--3--2--1-x3|---9--8--7--6--5~ -----------|
A|--1--1--2--4~ ----1--4--4--4--3--2--1---|---7--6--5--4--3~ -----------|
E|--0---------------0--0--0--0--0--0--0---|-----------------------------|


“here folks in the city party and martini bars……”
(play intro with light palm mute)


Chorus 1x
Intro 1x

“got your country boys and redneck girls……….”
Play this:
e|---------------------------------------------------|---------------------|
B|---------------------------------------------------|---------------------|
G|---------------------------------------------------|---------------------|
D|-----------------------------------------2--4------|---------------------|
A|------x--x--------x--x--------x--x-------2--4------|------x--x-----x4----|
E|--x---x--x----x---x--x----x---x--x----x------------|--x---x--x-----------|

Outro= chorus 


The End 
comments
We did not receive enough feedback on this tab! Please rate:
print report bad tab
1 2 3 4 5
2 comments total.
0 reply
thra1l wrote on December 26 2006, 03:34 pm

not good at all:(

0 reply
teleman12 wrote on December 26 2006, 04:48 pm

dude, maybe if you learned to play it would be good...

I want to post or [tab]
guest
You may want to rate the tab now too:
select rating
Please do not post tabs as comments. Select "correction" instead!