Oops, an error
Loading. Please wait.

Hick Town Tab

version 5
version 5

Interactive

15,834 views 6 this week
1 commentread comment
1 2 3 4 5
excellent!
x 8
add to favorites
launch autoscroll
font size
0
reset
how to read this tab
guitar tuner
Tab Pro tools
  • play this tab
  • loop segment
  • change instrument
  • show fretboard
  • metronome
×
Best way to learn
"Hick Town"
Autoscroll
slow
fast
+/-
esc
set tempo
stop
Contributor
Intro: 4 X's

e|----------------------------------|
B|----------------------------------|
G|--6-6---------------6-6-----------|
D|--6-6------2-3------6-6-------2-4-|
A|--4-4--2-4-----2-4--4-4--2-4--2-4-|
E|------------------------------0-2-|

Verse 1 & 2: 
   | P  a  l  m   M  u  t  e |
e|-|-------------------------|-----|
B|-|-------------------------|-----|
G|-|-6-6-6-6-6-6-6-6-6-6-6-6-|-----|
D|-|-6-6-6-6-6-6-6-6-6-6-6-6-|-2-4-|
A|-|-4-4-4-4-4-4-4-4-4-4-4-4-|-2-4-|
E|-|-------------------------|-0-2-|
 V1. Little Jimmy Jackson...
 V2. You can see the neighbors butt crack...

E|----------------------------------|
B|----------------------------------|
G|--6-6---------------6-6-----------|
D|--6-6------2-3------6-6-------2-4-|
A|--4-4--2-4-----2-4--4-4--2-4--2-4-|
E|------------------------------0-2-|

Chorus:

e|----------------------| 4 X's
B|----------------------|
G|----------6-6---------|
D|----------6-6--2-2--4-|
A|----------4-4--2-2--4-|
E|---------------0-0--2-|
We let it rip...

e|-------------------------------|
B|-------------------------------|
G|-------------------------------|
D|---------------------9-8-6-4-2-|
A|---------------------9-8-6-4-2-|
E|---------------------7-6-4-2-0-|
That's the way we get doooooooown  in a hick town

Instrumental Break 2X's/ Verse 3
 |        P A L M     M U T E D        |
e|-------------------------------------|
B|-------------------------------------|
G|-----6-6---------------6-6-----------|
D|-----6-6------2-3------6-6-------2-4-|
A|-----4-4--2-4-----2-4--4-4--2-4--2-4-|
E|---------------------------------0-2-|
V3. We hear folks in the city...

e|-------------------------------|
B|-------------------------------|
G|----6-6-6-6-6-6-6-6------------|
D|----6-6-6-6-6-6-6-6--2-2-2-2-4-|
A|----4-4-4-4-4-4-4-4--2-2-2-2-4-|
E|---------------------0-0-0-0-2-|
  and crank our kraco speakers...

Outro: 
Same as the intro
comments
print report bad tab
1 comment total.
0 reply
nikorocks919 wrote on May 28 2011, 12:56 am

Nice standard tuning version.

The original is tuned down a half step with dropped D tuning...

Db Ab Db Gb Bb Eb

It's actually a little easier in this tuning.

I want to post or [tab]
guest
You may want to rate the tab now too:
select rating
Please do not post tabs as comments. Select "correction" instead!