Oops, an error
Loading. Please wait.

Hick Town Tab

version 7
version 7

Interactive

6,804 views 15 this week
1 commentread comment
1 2 3 4 5
excellent!
x 4
add to favorites
launch autoscroll
font size
0
reset
how to read this tab
guitar tuner
Tab Pro tools
  • play this tab
  • loop segment
  • change instrument
  • show fretboard
  • metronome
×
Best way to learn
"Hick Town"
Autoscroll
slow
fast
+/-
esc
set tempo
stop
Contributor
Tuning
C# G# C# F# A# D#
-------------------------------------------------------------------------------
                             Hick Town - Jason Aldean
-------------------------------------------------------------------------------
Tabbed by: derrickddyp
Email: derrick_fields54@yahoo.com

Was tired of seeing this tabbed wrong. Learned it by ear. should be correct.
Tuning: C# or Db

INTRO:

eb|-------------------------------------------------|
Bb|-------------------------------------------------|
Gb|-------------------------------------------------| x4
Db|-------------3-4-----------------3-5-------------|
Ab|---------3-5-----3-5--------3-5--3-5-------------|
Db|---0-0-----------------0-0-------3-5-------------|


VERSE:

eb|----------------------------------------------------------------------|
Bb|----------------------------------------------------------------------|
Gb|----------------------------------------------------------------------| x4
Db|--------------------------3-5-------------3-4----------------3-5------|
Ab|--------------------------3-5---------3-5-----3-5-------3-5--3-5------|
Db|-0-0---0-0-0---0-0-0---0--3-5---0-0----------------0-0-------3-5------|
    x x   x x x   x x x   x

CHORUS:

eb|--------------------------|
Bb|--------------------------|
Gb|--------------------------| x3
Db|--0------5--5\------------|
Ab|--0----3-5--5\3-----------|
Db|--0--0-3-5--5\3-----------|

POST CHORUS:

eb|---------------------|
Bb|---------------------|
Gb|---------------------|
Db|---------------------|
Ab|---3~--2~--0---------|
Db|--------------5-5-3~-|
                 x x
PRE-VERSE:

eb|-------------------------------------------------|
Bb|-----------------------------------------(10-10)-|
Gb|-----------------------------------------(10-10)-| x2 (second time)
Db|-------------3-4-----------------3-5-------------|
Ab|---------3-5-----3-5--------3-5--3-5-------------|
Db|---0-0-----------------0-0-------3-5-------------|

VERSE 2:

eb|----------------------------------------------------------------------|
Bb|----------------------------------------------------------------------|
Gb|----------------------------------------------------------------------| x4
Db|--------------------------3-5-------------3-4----------------3-5------|
Ab|--------------------------3-5---------3-5-----3-5-------3-5--3-5------|
Db|-0-0---0-0-0---0-0-0---0--3-5---0-0----------------0-0-------3-5------|
    x x   x x x   x x x   x

CHORUS:

eb|--------------------------|
Bb|--------------------------|
Gb|--------------------------| x3
Db|--0------5--5\------------|
Ab|--0----3-5--5\3-----------|
Db|--0--0-3-5--5\3-----------|

POST CHORUS:

eb|---------------------|
Bb|---------------------|
Gb|---------------------|
Db|---------------------|
Ab|---3~--2~--0---------|
Db|--------------5-5-3~-|  CHORUS & POST CHORUS AGAIN
                 x x


eb|-------------------------------------------------|
Bb|-------------------------------------------------|
Gb|-------------------------------------------------| x6 (last time unmute)
Db|-------------3-4-----------------3-5-------------|
Ab|---------3-5-----3-5--------3-5--3-5-------------|
Db|---0-0-----------------0-0-------3-5-------------|
      x x   x x x x x x   x x  x x  x x


CHORUS:

eb|--------------------------|
Bb|--------------------------|
Gb|--------------------------| x3
Db|--0------5--5\------------|
Ab|--0----3-5--5\3-----------|
Db|--0--0-3-5--5\3-----------|

POST CHORUS:

eb|---------------------|
Bb|---------------------|
Gb|---------------------|
Db|---------------------|
Ab|---3~--2~--0---------|
Db|--------------5-5-3~-|  CHORUS & POST CHORUS AGAIN
                 x x

OUTRO(ish):

eb|-------------------------------------------------|
Bb|-------------------------------------------------|
Gb|-------------------------------------------------| x4
Db|-------------3-4-----------------3-5-------------|
Ab|---------3-5-----3-5--------3-5--3-5-------------|
Db|---0-0-----------------0-0-------3-5-------------|



ENCORE(i guess):

eb|---------------------------------|
Bb|---------------------------------|
Gb|---------------------------------| x2
Db|--------------------------3-5----|
Ab|--------------------------3-5----|
Db|-0-0---0-0-0---0-0-0---0--3-5----|
    x x   x x x   x x x   x


eb|-------------------------------------------------|
Bb|-------------------------------------------------|
Gb|-------------------------------------------------| x4
Db|-------------3-4-----------------3-5-------------|
Ab|---------3-5-----3-5--------3-5--3-5-------------|
Db|---0-0-----------------0-0-------3-5-------------|


CHORUS:

eb|--------------------------|
Bb|--------------------------|
Gb|--------------------------| x3
Db|--0------5--5\------------|
Ab|--0----3-5--5\3-----------|
Db|--0--0-3-5--5\3-----------|

POST CHORUS:

eb|---------------------|
Bb|---------------------|
Gb|---------------------|
Db|---------------------|
Ab|---3~--2~--0---------|
Db|--------------5-5-3~-|  CHORUS & POST CHORUS AGAIN
                 x x

OUTRO:

eb|------------------------------|
Bb|------------------------------|
Gb|------------------------------| x5 (alot of heavy vibrato)
Db|------------------------------|
Ab|------------------------------|
Db|---0-0-3-5~--0-3~-0-3~-0------|


************************************

| /   slide up
| \   slide down
| h   hammer-on
| p   pull-off
| ~   vibrato
| +   harmonic
| x   Mute note
| b   Bend
| pb  Pre-bend
| br  Bend release
| pbr Pre-bend release
| brb Bend release bend

************************************
comments
print report bad tab
1 comment total.
0 reply
superbad1985 wrote on January 28 2014, 05:10 pm

hey man great job! i really appreciate it, you nailed this is the only right tab for this song!

I want to post or [tab]
guest
You may want to rate the tab now too:
select rating
Please do not post tabs as comments. Select "correction" instead!