Oops, an error
Loading. Please wait.

Hicktown Tab

version 1
version 1

Whole song

9,199 views 3 this week
no commentswrite comment
1 2 3 4 5
x 5
add to favorites
×
Save as Personal and add changes to this tab that will be seen only by you. Learn more ›
×
You can save this tab as Personal to edit and correct it or add notes. All changes will be seen only by you. Learn more »
save as personal
new!
launch autoscroll
font size
0
reset
how to read this tab
guitar tuner
Autoscroll
slow
fast
+/-
esc
set tempo
stop
Author
Difficulty
Tuning
novice
C# G# C# F# A# D#
      Intro    play it 4 times
Eb|-------------------------------------------------------------------------|
Bb|-------------------------------------------------------------------------|
Gb|-------------------------------------------------------------------------|
Db|----------3-4------------------------------------------------------------|
Ab|------3h5-----3h5-------3h5--3--5----------------------------------------|
Db|-00------------------00------3--5----------------------------------------|

Verse 4x
Eb|-------------------------------------------------------------------------|
Bb|-------------------------------------------------------------------------|
Gb|-------------------------------------------------------------------------|
Db|--------------------------------3-4--------------------------------------|
Ab|-00---000---000--0-3-5------3h5-----3h5------3h5---3-5-------------------|
Db|-00---000---000--0-3-5---00---------------00-------3-5-------------------|

Chorus
Eb|-------------------------------------------------------------------------|
Bb|-------------------------------------------------------------------------|
Gb|-------------------------------------------------------------------------|
Db|-------------------------------------------------------------------------|
Ab|-0--0-3-5-----0--0-3-5-----0--0-3-5-----3-2-0--3-5-----------------------|
Db|-0--0-3-5-----0--0-3-5-----0--0-3-5-----3-2-0--3-5-----------------------|

Pre-verse
Eb|-------------------------------------------------------------------------|
Bb|-------------------------------------------------------------------------|
Gb|-------------------------------------------------------------------------|
Db|----------3-4------------------------------------------------------------|
Ab|------3h5-----3h5-------3h5--3--5----------------------------------------|
Db|-00------------------00------3--5----------------------------------------|

Verse 4x
Eb|-------------------------------------------------------------------------|
Bb|-------------------------------------------------------------------------|
Gb|-------------------------------------------------------------------------|
Db|--------------------------------3-4--------------------------------------|
Ab|-00---000---000--0-3-5------3h5-----3h5------3h5---3-5-------------------|
Db|-00---000---000--0-3-5---00---------------00-------3-5-------------------|

Chorus 2x
Eb|-------------------------------------------------------------------------|
Bb|-------------------------------------------------------------------------|
Gb|-------------------------------------------------------------------------|
Db|-------------------------------------------------------------------------|
Ab|-0--0-3-5-----0--0-3-5-----0--0-3-5-----3-2-0--3-5-----------------------|
Db|-0--0-3-5-----0--0-3-5-----0--0-3-5-----3-2-0--3-5-----------------------|

Then this palm muted 4x
Eb|-------------------------------------------------------------------------|
Bb|-------------------------------------------------------------------------|
Gb|-------------------------------------------------------------------------|
Db|----------3-4------------------------------------------------------------|
Ab|------3h5-----3h5-------3h5--3--5----------------------------------------|
Db|-00------------------00------3--5----------------------------------------|

Chorus 2-3x
Eb|-------------------------------------------------------------------------|
Bb|-------------------------------------------------------------------------|
Gb|-------------------------------------------------------------------------|
Db|-------------------------------------------------------------------------|
Ab|-0--0-3-5-----0--0-3-5-----0--0-3-5-----3-2-0--3-5-----------------------|
Db|-0--0-3-5-----0--0-3-5-----0--0-3-5-----3-2-0--3-5-----------------------|


Eb|-------------------------------------------------------------------------|
Bb|-------------------------------------------------------------------------|
Gb|-------------------------------------------------------------------------|
Db|----------3-4------------------------------------------------------------|
Ab|------3h5-----3h5-------3h5--3--5----------------------------------------|
Db|-00------------------00------3--5----------------------------------------|


Ah we aint finished yet
                                 4x
Eb|--------------------------|----------------------------------------------|
Bb|--------------------------|----------------------------------------------|
Gb|--------------------------|----------------------------------------------|
Db|--------------------------|-------3-4------------------------------------|
Ab|-0--0-3-5-----0--0-3-5----|----3h5-----3h5------3h5--3--5----------------|
Db|-0--0-3-5-----0--0-3-5----?-00---------------00------3--5----------------|
Suggest correction
comments
print report bad tab
guest
You may want to rate the tab now too:
select rating
Wanna post a correction for this tab? Suggest correction