Oops, an error
Loading. Please wait.

Johnny Cash Tab

version 1
version 1

Intro

Whole song

8,400 views 9 this week
no commentswrite comment
1 2 3 4 5
excellent!
x 7
add to favorites
launch autoscroll
font size
0
reset
how to read this tab
guitar tuner
Tab Pro tools
  • play this tab
  • loop segment
  • change instrument
  • show fretboard
  • metronome
Autoscroll
slow
fast
+/-
esc
set tempo
stop
Contributor
Tabbed by:abbott764
Email:abbott764@gmail.com

Tuning:Capo on 1
intro

e|--------------------------------------------------------------------------|
B|--------------------------------------------------------------------------|
G|-19\7--7-7-7-5-5-7-7-----------------7-7-7-5-5-7-7------------------------|
D|---------------------5-7-7-7-5---------------------5-7-7-7-5--------------|
A|-------------------------------8-5-5-------------------------8-5-5--------|
E|--------------------------------------------------------------------------|


e|--------------------------------------------------------------------------|
B|--------------------------------------------------------------------------|
G|-------7-7-7-5-5-7-7-----------------7-7-7-5-5-7-7------------------------|
D|---------------------5-7-7-7-5---------------------5-7-7-7-5--------------|
A|-------------------------------8-5-5-------------------------8-5-5--------|
E|--------------------------------------------------------------------------|



        D                           C                         G
 	 Quit my job flipped off the boss took my name off the pay roll

        D                            C                               G
 	 picked up my cell rang my babies bell said i'm three miles from 
         
         home
                 D                                       C          G
 	 I said sugar won't you put on that sun dress I like so much

         D                                  C         G
 	 wait out by the road im comin' to pick you up


           D         C                   G
CHORUS 	  whoa whoa  throw your suitcase in the back

           D         C                G
 	  whoa whoa  done gassed up the Pontiac

           D         C               G               	 
	  whoa whoa  blastin' out the Johnny Cash 
           C                        G                       D
           headin' for the highway baby we aint ever comin' back

e|--------------------------------------------------------------------------|
B|--------------------------------------------------------------------------|
G|-------7-7-7-5-5-7-7-----------------7-7-7-5-5-7-7------------------------|
D|---------------------5-7-7-7-5---------------------5-7-7-7-5--------------|
A|-------------------------------8-5-5-------------------------8-5-5--------|
E|--------------------------------------------------------------------------|

 	 

         D                                     C                            
         It's Four-hundred and sixty-seven miles to the outskirts of Las 
          G
         Vegas
e|----------------|
B{----------------|
G|-7-5------------|
D|-----9-7-5------|
A|-----------8-5--|
E|----------------|

          D                                      C
          What do ya say we go get married by a preacher man who 
                      G
          Looks like Elvis...Yeah Mama
         D                                    C           G
 	 sugar don't worry about tellin' your momma goodbye
 
               D                                     C       G
 	 we'll send her a souvenir postcard from the wild side


           D         C                  G
CHORUS 	  whoa whoa  throw your suitcase in the back

           D         C                 G
 	  whoa whoa  done gassed up the Pontiac

           D         C               G               	 
	  whoa whoa  blastin' out the Johnny Cash 
           C                        G                       D
           headin' for the highway baby we aint ever comin' back


Solo
e|---------------------------------------------------|
B|--------pb5r-------8----------------8-6-----8-h10--|
G|-5-h7-7------7---5----5-4-----5-h7-7-----8-7--------|
D|---------------7-----------------------------------|
A|---------------------------------------------------|
E|---------------------------------------------------|

e|-10-10-10-10-10-10-8-10-13-10-8-----------------8-9-10--|
B|--------------------------------5/6----7-8-9-10---------|
G|------------------------------------7-7-----------------|
D|--------------------------------------------------------|
A|--------------------------------------------------------|
E(--------------------------------------------------------|


           D         C                  G
CHORUS 	  whoa whoa  throw your suitcase in the back

           D         C                 G
 	  whoa whoa  done gassed up the Pontiac

           D         C               G               	 
	  whoa whoa  blastin' out the Johnny Cash 
           C                        G                       D
           headin' for the highway baby we aint ever comin' back
           
          

e|--------------------------------------------------------------------------|
B|--------------------------------------------------------------------------|
G|-------7-7-7-5-5-7-7-----------------7-7-7-5-5-7-7------------------------|
D|---------------------5-7-7-7-5---------------------5-7-7-7-5--------------|
A|-------------------------------8-5-5-------------------------8-5-5--------|
E|--------------------------------------------------------------------------|


e|--------------------------------------------------------------------------|
B|--------------------------------------------------------------------------|
G|-------7-7-7-5-5-7-7-----------------7-7-7-5-5-7-7------------------------|
D|---------------------5-7-7-7-5---------------------5-7-7-7-5--------------|
A|-------------------------------8-5-5-------------------------8-5-5--------|
E|--------------------------------------------------------------------------|


e|--------------------------------------------------------------------------|
B|--------------------------------------------------------------------------|
G|-------7-7-7-5-5-7-7-----------------7-7-7-5-5-7-7------------------------|
D|---------------------5-7-7-7-5---------------------5-7-7-7-5--------------|
A|-------------------------------8-5-5-------------------------8-5-5--------|
E|--------------------------------------------------------------------------|


e|--------------------------------------------------------------------------|
B|----------------------------------------------------------7-7-------------|
G|-------7-7-7-5-5-7-7-----------------7-7-7-5-5-7-7--------7-7-------------|
D|---------------------5-7-7-7-5----------------------------7-7-------------|
A|-------------------------------8-5-5----------------------5-5-------------|
E|--------------------------------------------------------------------------|


************************************

| /   slide up
| \   slide down
| h   hammer-on
| p   pull-off
| ~   vibrato
| +   harmonic
| x   Mute note
| b   Bend
| pb  Pre-bend
| br  Bend release
| pbr Pre-bend release
| brb Bend release bend

************************************
comments
print report bad tab
I want to post or [tab]
guest
You may want to rate the tab now too:
select rating
Please do not post tabs as comments. Select "correction" instead!