Oops, an error
Loading. Please wait.

My Kinda Party Tab

version 1
version 1

Solo

Whole song

Interactive

5,076 views 6 this week
no commentswrite comment
1 2 3 4 5
excellent!
x 4
add to favorites
launch autoscroll
font size
0
reset
how to read this tab
guitar tuner
Tab Pro tools
  • play this tab
  • loop segment
  • change instrument
  • show fretboard
  • metronome
×
Best way to learn
"My Kinda Party"
Autoscroll
slow
fast
+/-
esc
set tempo
stop
Contributor
Difficulty
Tuning
intermediate
D# G# C# F# A# D#
-------------------------------------------------------------------------------
                             My Kinda Party - Jason Aldean
-------------------------------------------------------------------------------
Tabbed by: truije15
E-mail: truije15@gmail.com

Tuning: Standard, Half Step Down

e|---------------------------------------------------------------------------|
B|---------------------------------------------------------------------------|
G|-------9~------------9---------------9~------------9---------------9~------|
D|-/9h11----11~-----11---11~-----/9h11----11~-----11---11~-----/9h11----11~--|
A|---------------------------------------------------------------------------|
E|---------------------------------------------------------------------------|

e|----------------9-------9-------9-------9----------------------------------|
B|---------------9---12b14---12b14---12b14---12b14~--------------------------|
G|-------9h11b13-------------------------------------------------------------|
D|-11-11---------------------------------------------------------------------|
A|---------------------------------------------------------------------------|
E|---------------------------------------------------------------------------|

e|---------------------------------------------------------------------------|
B|-12-----------------12---------------12---------------12-------------------|
G|-11b13b11-9---------11b13b11-9-------11b13b11-9-------11b13b11-9-----------|
D|---------------------------------------------------------------------------|
A|---------------------------------------------------------------------------|
E|---------------------------------------------------------------------------|

e|---------------------------12-14-14b16--12-14-14b16-12-14-14b16b14p12------|
B|---------------------------------------------------------------------14 14~|
G|---------------------------------------------------------------------------|
D|-9h11--11-9-------------9~-------------------------------------------------|
A|------------11-9-7---------------------------------------------------------|
E|-------------------5/7~----------------------------------------------------|

e|-12-14-14b16--12-14-14b16--12-14-14b16b14p12-------------------------------|
B|---------------------------------------------14-14~------------------------|
G|---------------------------------------------------------------------------|
D|---------------------------------------------------------------------------|
A|---------------------------------------------------------------------------|
E|---------------------------------------------------------------------------|

e|---------------------------------------12h14-14-14-14--/19b21~-21~-21~-21~-|
B|-14\12-12-12-12/14-14-14-12h14-14-14---------------------------------------|
G|---------------------------------------------------------------------------|
D|---------------------------------------------------------------------------|
A|---------------------------------------------------------------------------|
E|---------------------------------------------------------------------------|

e|---------------------------------------------------------------------------|
B|---------------------------------------------------------------------------|
G|--13\11\9--9/11/13--13\11\9------9--9--9/11--11--11--11/13--13--13---------|
D|---------------------------------------------------------------------------|
A|--11\9-\7--7/9-/11--11\9-\7------7--7--7/9---9---9---9-/11--11--11---------|
E|---------------------------------------------------------------------------|

e|---------------------------------------------------------------------------|
B|---------------------------------------------------------------------------|
G|------9----9h11p9--repeat--------------------------------------------------|
D|-9h11---11-----------------------------------------------------------------|
A|---------------------------------------------------------------------------|
E|---------------------------------------------------------------------------|

e|---------------------------------------------------------------------------|
B|-------9h12p9-------9------------------------------------------------------|
G|-11b13--------11b13---12p11p9-----9~-------11b12br11p9----9~---------------|
D|-------------------------------------------------------11------------------|
A|---------------------------------------------------------------------------|
E|---------------------------------------------------------------------------|

e|-14b15-12~-------12-14-12~-------------------------------------------------|
B|-----------14-14-----------12----------------------------------------------|
G|---------------------------11b13b11-9-------9-11-9-------------------------|
D|--------------------------------------11-11--------11~---------------------|
A|---------------------------------------------------------------------------|
E|---------------------------------------------------------------------------|

E|---------------------------------------------------------------------------|
B|-7/12-12-12~--7/12-12-12~--7/12-12-12--------------------------------------|
G|---------------------------------------------------------------------------|
D|---------------------------------------------------------------------------|
A|---------------------------------------------------------------------------|
E|---------------------------------------------------------------------------|

e|----------12b14-14b16-12b14----14/16---------------------------------------|
B|-12-14b16-------------------12----------12h14~-----------------------------|
G|-------------------------------------13------------------------------------|
D|---------------------------------------------------------------------------|
A|---------------------------------------------------------------------------|
E|---------------------------------------------------------------------------|

e|---------------------------------------------------------------------------|
B|---------------------------------------------------------------------------|
G|-------------------------------------------------------------------9-------|
D|----------------------------------------------------------9----9h11--11~---|
A|-----------------7b9b7b9b7b9b7-7-------------------7h9h11---11-------------|
E|-7b9~----9b12~---------------------9-7-9\0---------------------------------|




************************************

| /   slide up
| \   slide down
| h   hammer-on
| p   pull-off
| ~   vibrato
| +   harmonic
| x   Mute note
| b   Bend
| pb  Pre-bend
| br  Bend release
| pbr Pre-bend release
| brb Bend release bend

************************************
comments
print report bad tab
I want to post or [tab]
guest
You may want to rate the tab now too:
select rating
Please do not post tabs as comments. Select "correction" instead!