Oops, an error
Loading. Please wait.

My Kinda Party Tab

version 1
version 1

Whole song

Interactive

Video

91,646 views 36 this week
4 commentsread comments
1 2 3 4 5
accurate
x 13
add to favorites
launch autoscroll
font size
0
reset
how to read this tab
guitar tuner
Autoscroll
slow
fast
+/-
esc
set tempo
stop
Help us to improve Ultimate-Guitar.com Take our survey!
×
Difficulty
intermediate
This is my first tab so I hope I did ok...I'm currently tabing out the ending solo 
so be patient it will be up shortly.
Also, just listen to the song to pick up the picking pattern and rythem and you'll 
be sounding just like the song.

Any questions or comments please feel free to email me at drpetrus@marauder.millersville.edu

Please Rate and ENJOY!!! :D

Intro
e|-----------------------------------------------------------------|
B|-/17--15-12~----/17--15--8~----/17--15--11--8-10^12^10--8-8h10~\-|
G|-----------------------------------------------------------------| X2
D|-----------------------------------------------------------------|
A|-----------------------------------------------------------------|
E|-----------------------------------------------------------------|

Main Riff/Chorus
e|--------------------------------------------------|
B|--------------------------------------------------|
G|--5----8----3---------3---------------------------| X2
D|--5----8----3----6----3---------------------------|
A|--3----6----1----6----1---------------------------|
E|-----------------4--------------------------------|

Pre-Chorus
e|--------------------------------------------------|
B|--------------------------------------------------|
G|-------3---------3--------------------------------| 
D|--6----3----6----3--------------------------------|
A|--6----1----6----1--------------------------------|
E|--4---------4-------------------------------------|

Main Riff/Chorus
e|--------------------------------------------------|
B|--------------------------------------------------|
G|--5----8----3---------3---------------------------| X2
D|--5----8----3----6----3---------------------------|
A|--3----6----1----6----1---------------------------|
E|-----------------4--------------------------------|

Intro Lick
e|-----------------------------------------------------------------|
B|-/17--15-12~---/17--15--8~----/17--15--11--8-10^12^10--8-8h10\---|
G|-----------------------------------------------------------------| 
D|-----------------------------------------------------------------|
A|-----------------------------------------------------------------|
E|-----------------------------------------------------------------|

Bridge
e|--------------------------------------------------|
B|--------------------------------------------------|
G|--5-5-5-5-3-3-x-3--3-5----------------------------| X4
D|--------------------------------------------------|
A|--------------------------------------------------|
E|--------------------------------------------------|

e|--------------------------------------------------| 
B|--------------------------------------------------|
G|--x-x-x-5-3-3-x-3--3-5---X3------------------3----|
D|----------------------------------------6----3----|
A|----------------------------------------6----1----|
E|----------------------------------------4---------|
Pre-Chorus
e|--------------------------------------------------|
B|--------------------------------------------------|
G|-------3---------3--------------------------------|
D|--4----3----6----3--------------------------------|
A|--4----1----6----1--------------------------------|
E|--6---------4-------------------------------------|

Chorus
e|--------------------------------------------------|
B|--------------------------------------------------|
G|--5----8----3---------3---------------------------| X2
D|--5----8----3----6----3---------------------------|
A|--3----6----1----6----1---------------------------|
E|-----------------4--------------------------------|

First Solo
e|--------------------------------------------------|
B|------------12^14-12^14------------12^14-12^14----|
G|--9^12-9^12--------------9^12-9^12----------------|
D|--------------------------------------------------|
A|--------------------------------------------------|
E|--------------------------------------------------|

e|--------------12\-----------------------------------------------|
B|--8--------8--12\-----------------------------------------------|
G|--10^12r10-8--12\----------------------------8h10-10^12-10^12~--|
D|--------------12\------------6h8-6h8/10-8h10--------------------|
A|--------------12\--------6h8------------------------------------|
E|--------------12\----6h8----------------------------------------|

e|--12\------------------------------------------------|
B|--12\----15^17-15^17~--------------------------------|
G|--12\------------------------------------------------|
D|--12\------------------------------------------------|
A|--12\------------------------------------------------|
E|--12\------------------------------------------------|


e|--------------------------------------------------|
B|--------------------------------------------------|
G|-----------------------3---------3----------------|
D|-----------------------3----6----1----------------|
A|-----------------------1----6----1----------------|
E|----------------------------4---------------------|

Closing Lick
e|-----------------------------------------------------------------|
B|-/17--15-12~----/17--15--8~--------------------------------------|
G|-----------------------------------------------------------------| 
D|-----------------------------------------------------------------|
A|-----------------------------------------------------------------|
E|-----------------------------------------------------------------|

e|-----------------------------------------------------------------|
B|--/17--15--11--8-10^12^10--8-8h10-10^12^10^12^10^12-8------------|
G|-----------------------------------------------------------------| 
D|-----------------------------------------------------------------|
A|-----------------------------------------------------------------|
E|-----------------------------------------------------------------|
Suggest correction
comments
print report bad tab
4 comments total. Showing first comments.
-1 reply
boosted928 51 wrote on November 14 2010, 11:03 am

Good tab but some parts need to be fixed.
This:
Intro Lick
e|-----------------------------------------------------------------|
B|-/17--15-12~---/17--15--8~----/17--15--11--8-10^12^10--8-8h10\---|
G|-----------------------------------------------------------------|
D|-----------------------------------------------------------------|
A|-----------------------------------------------------------------|
E|-----------------------------------------------------------------|

Should be:
Intro Lick
e|-----------------------------------------------------------------|
B|-/11--13-8~---/11--13--4~----/11--13--6~--4-6^7^6--4-4h6---|
G|-----------------------------------------------------------------|
D|-----------------------------------------------------------------|
A|-----------------------------------------------------------------|
E|-----------------------------------------------------------------|

+1 reply
Bennybur 10 wrote on December 31 2010, 06:07 pm

The intro needs to be fixed and boosted928 is kind of close.

Intro should be:


e|-----------------------------------------------------------------|
B|--13--11-8----13--11-4----13--11-6--4-6/7/6-4-4h6----------------|
G|-----------------------------------------------------------------|
D|-----------------------------------------------------------------|
A|-----------------------------------------------------------------|
E|-----------------------------------------------------------------|

Or try this one:
e|-----------------------------------------------------------------|
B|-----------------------------------------------------------------|
G|--17--15-12----17--15-8----17--15-10--8-10/12/10-8-8h10----------|
D|-----------------------------------------------------------------|
A|-----------------------------------------------------------------|
E|-----------------------------------------------------------------|

0 reply
bb155558 41 wrote on January 8 2011, 10:11 am

please get that ending solo up!!!!

guest
You may want to rate the tab now too:
select rating
Wanna post a correction for this tab? Suggest correction