Oops, an error
Loading. Please wait.

Shes Country Tab

version 1
version 1

Whole song

183,468 views 24 this week
8 commentsread comments
1 2 3 4 5
x 9
add to favorites
launch autoscroll
font size
0
reset
how to read this tab
guitar tuner
Autoscroll
slow
fast
+/-
esc
set tempo
stop
Help us to improve Ultimate-Guitar.com Take our survey!
×
Author
This song is tuned down 1/2 step with a drop D, so technically you would say it goes 
this. The first part is played on banjo, but the rest is on guitar. This is all I could 
out.

   Banjo (8x)                   Guitar
Eb|--3h5-3-1--------1-------| Eb|-------------------------------------------|
Bb|----------3--1h3---3-1h3-| Bb|-------------------------------------------|
Gb|-------------------------| Gb|-------------------------------------------|
Db|-------------------------| Db|-------------------------------------------|
Ab|-------------------------| Ab|--0-2-3-3-5-3-3-2-2-0-2-3-3-5-------5---3~-|
Db|-------------------------| Db|--0-2-3-3-5-3-3-2-2-0-2-3-3-5-3h4h5---5----|

Play the guitar part throughout the verses, and play this in the transition to the 
southern drawl, sexy swingin' walk...).

Eb|---------------------------------------------|
Bb|---------------------------------------------|
Gb|---------------------------------------------|
Db|---------------------------------------------|
Ab|--0-0-0-0-3-3-3-3-5-5-5-5-5------------------|
Db|--0-0-0-0-3-3-3-3-5-5-5-5-5------------------|

This is the bridge after Jason says something about "how a country girl does it". Use 
mutes where needed because I don't know how to symbolize them. Play this four times, then 
back to the chorus.

Eb|---------------------------------------------|
Bb|---------------------------------------------|
Gb|---------------------------------------------|
Db|-----3---5br-3---3-------3-------------------|
Ab|-3-5---5-------5---3-4-5---5-3-5-------5---3~|
Db|---------------------------------3h4h5---5---|

Play the guitar intro as the outro and that's it! Enjoy!
Suggest correction
comments
print report bad tab
8 comments total. Showing first comments.
0 reply
chuckroast0 10 Jul 11, 2009 10:45 AM

what do you play for the chorus?

0 reply
marshall-amp 10 Jul 24, 2009 08:49 PM

I would've liked the solo but not too shabby!

0 reply
dirtyboy12 10 Jul 29, 2009 07:41 PM

the chorus is D, C, and G power chords. I learned that by ear and fooling around with it and it sounds goo to me at least.

guest
You may want to rate the tab now too:
select rating
Wanna post a correction for this tab? Suggest correction