Oops, an error
Loading. Please wait.

Shes Country tab

version 2
version 2

Whole song

101,093 views 81 this week
3 commentsread comments
1 2 3 4 5
x 29
add to favorites
×
Save as Personal and add changes to this tab that will be seen only by you. Learn more ›
×
You can save this tab as Personal to edit and correct it or add notes. All changes will be seen only by you. Learn more »
launch autoscroll
font size
0
reset
how to read this tab
guitar tuner
backing track
0:00
0:00
edit
Autoscroll
slow
fast
+/-
esc
set tempo
stop
Author
(Banjo Part)
Eb|--3h5--3--1------------1---------|
Bb|-------------3---1h3------3--1h3-|
Gb|---------------------------------|    (Three times)
Db|---------------------------------|
Ab|---------------------------------|
Db|---------------------------------|

Eb|--3h5--3--1----------5-4-3/1-------|
Bb|-------------3----------------3----|
Gb|-----------------------------------|
Db|-----------------------------------|
Ab|-----------------------------------|
Db|-----------------------------------|

Eb|------------------------------------|
Bb|-------1h3-----------3----3-------3-|
Gb|--0h2-------0h2---------2---2-------| (four times)
Db|-----------------0--------------0---|
Ab|------------------------------------|
Db|------------------------------------|

               (Distorted Part)  (Main Riff)
Eb|----------------------------------------------------------------------|
Bb|----------------------------------------------------------------------|
Gb|----------------------------------------------------------------------|
Db|----------------------------------------------------------------------|
Ab|---------0---2-3---3-5---3-3--2-2----0--2-3---3-5----------5--------3-|
Db|--12\----0---2-3---3-5---3-3--2-2----0--2-3---3-5----3-4-5----3--5----|

              (Riff Leading To Chorus)
Eb|---------------------------------------|
Bb|---------------------------------------|
Gb|---------------------------------------|
Db|---------------------------------------|
Ab|---0-0-0-0--3-3-3-3--5-5-5-5-5/--------|
Db|---0-0-0-0--3-3-3-3--5-5-5-5-5/--------|

             (Chorus)
Eb|------------------------------------------------------|
Bb|------------------------------------------------------|
Gb|--7--7---7-7-7---5-5--5-5-----------------------------| (Three times)
Db|--7--7---7-7-7---5-5--5-5-----------------------------|
Ab|--5--5---5-5-5---3-3--3-3--3/5--5--5-5----3p0--3p0----|
Db|---------------------------3/5--5--5-5--------------3-|

      4th time you play chorus change the end of the riff
Eb|------------------------------------------------------------------------|
Bb|------------------------------------------------------------------------|
Gb|--7--7---7-7-7---5-5--5-5--------------------------5*b6r5---------------|
Db|--7--7---7-7-7---5-5--5-5-----------------------------------------------|
Ab|--5--5---5-5-5---3-3--3-3--3/5--5--5-5---3-x-3-x---------------5-------3|
Db|---------------------------3/5--5--5-5---3-x-3-x---------3-4-5----3--5--|

      (Chorus Guitar 2) Use a lot of vibrato
Eb|--------------------------------------------------------|
Bb|--------------------------------------------------------|
Gb|--------------------------------------------------------|
Db|--------------------------------------------------------|
Ab|--5--------------3-----------------------3p0--3p0-------|
Db|--------------------------3-------------------------3---|

        Lead guitar part in middle of second verse (use vibrato with the pinch harmonic)
Eb|---------10------10----10------10----10---------------|
Bb|---------12b15---12b15-12b15---12b15-12b15------------|
Gb|---5*-------------------------------------------------|
Db|------------------------------------------------------|
Ab|------------------------------------------------------|
Db|------------------------------------------------------|

     After ending second chorus (distorted)
Eb|-----------------------------------------------------------------|
Bb|-----------------------------------------------------------------|
Gb|-----------------------------------------------------------------|
Db|-----------------------------------------------------------------|
Ab|----0-------------------------3--2---0---------------------3--2--|
Db|----0-------------------------3--2---0---------------------3--2--|
         Thick southern drawl...          Sexy swingin walk

        After second chorus banjo part... its either this part or the very intro part i 
really hear it
Eb|------------------------------------|
Bb|-------1h3-----------3----3-------3-|
Gb|--0h2-------0h2---------2---2-------| (four times)
Db|-----------------0--------------0---|
Ab|------------------------------------|
Db|------------------------------------|

           Best part of the song (on the bend pull off part... let the note on fifth 
ring a little before you bend to 7)
Eb|----------------------------------------------------------------------|
Bb|----------------------------------------------------------------------|
Gb|----------------------------------------------------------------------|
Db|-------3------5b7r5p3-----3---------3---------------------------------|
Ab|--3h5-----5------------5------3-4-5---5----3--------------5---------3-|
Db|----------------------------------------------5----3-4-5------3--5----|

        Little solo during the cool riff(once again use vibrato)
Eb|-------------------------------------------------|
Bb|-------------8b10--8b10--8b10--6--------/15------|
Gb|---5b7----------------------------7--------------|
Db|-------------------------------------------------|
Ab|-------------------------------------------------|
Db|-------------------------------------------------|

   let the open chord ring and play something similar to the 2nd banjo part in the 
be creative.
Eb|-------|
Bb|-------|
Gb|-------|
Db|-------|
Ab|--0----|
Db|--0----|

Small fast part leading into the final chorus ( like in the cool riff, let the note on 
fith fret ring before bending to 7)
Eb|-----------------------------------------|
Bb|-----------------------------------------|
Gb|--2p0------------------------------------|
Db|-------3p0-------3--5b7r5p3--------------|
Ab|------------3/5--------------5--3--5-----|
Db|-----------------------------------------|

Final little solo at the very end
Eb|--------------------------------------------------------------|
Bb|---------------12/15---15------------8p6----6-----------------|
Gb|---5/7--7-------------------5/7--7--------7----7--5-----------|
Db|-----------------------------------------------------7--5--3--|
Ab|--------------------------------------------------------------|
Db|--------------------------------------------------------------|

Finish it with the main riff and your done.



************************************

| x  Dead note
| h  Hammer-on
| p  Pull-off
| r  Release
| b  Bend
| /  Slide up
| \  Slide down

************************************
Suggest correction
Creating personal tab
Creating personal tab
You can edit any tab online and save it as your Personal.

You can edit, replace or remove any tab part or add personal notes – all changes will be seen only by you.

Personal tabs can be accessed anytime from any device, even offline.
Learn more »
comments
print report bad tab
3 comments total.
0 reply
Darkskybandit52 10 Jan 21, 2010 11:06 AM

Very very good work! sounds really good!

0 reply
nydj2fan 10 Mar 01, 2010 11:03 PM

the solo after "show em how a country girl does it one time" is played through twice before the section with the bend on the 5th fret. also leave the bass e string which is now d open when playing the main riff. sounds more correct

0 reply
woodylong 10 Apr 22, 2012 08:17 AM

I like it, Thanks for sharing

guest
You may want to rate the tab now too:
select rating
Wanna post a correction for this tab? Suggest correction