Oops, an error
Loading. Please wait.

The Only Way I Know Tab

version 1
version 1

Whole song

8,569 views 6 this week
5 commentsread comments
1 2 3 4 5
1 last vote to show rating
add to favorites
launch autoscroll
font size
0
reset
how to read this tab
guitar tuner
Autoscroll
slow
fast
+/-
esc
set tempo
stop
Help us to improve Ultimate-Guitar.com Take our survey!
×
Author
Difficulty
intermediate
-------------------------------------------------------------------------------
                             The Only Way I Know BY Jason Aldean
-------------------------------------------------------------------------------
Tabbed by:Bwait01

this is my first tab the tempo is 4 counts i did this by ear so i hope its
right.Sorry if its hard to understand.
Tuning:Standerd
    Intro
e|--------------------------------------------------|
B|--------------------------------------------------|
G|--9--7--5--7--9--7--5--7--9--7--5--7--9--7--5--7--|
D|--7--7--5--7--7--7--5--7--7--7--5--7--7--7--5--7--|
A|-----------------------------------------------5--|
E|--------------------------------------------------|
    Chorse                     Mini Solo
e|------------------------------------------------------------------------------------------------|
B|------------------------------------------------------------------------------------------------|
G|--9--7--5--7--9--7--5--7------------------------------------------------------------------------|
D|--7--4--3--7--7--4--3--7----------7-5------slide to 10-----5--------------7-5------slide to 9--5|
A|-----------5-----------5--------------7-5--------------12-----7--6--5--3------7-5---------------|
E|------------------------------------------------------------------------------------------------|
    Chorse
e|-------------------------------------------------|
B|-------------------------------------------------|
G|-9--7--5--7--9--7--5--7--9--7--5--7--9--7--5--7--|
D|-7--7--5--7--7--7--5--7--7--4--3--7--7--4--3--7--|
A|----------------------5-----------5-----------5--|
E|-------------------------------------------------|
         Solo
e|------------------------------------------------------------------------|
B|--8 h 10--7-----8 h 10--7-----15--13------------------------------------|
G|----------7-------------7-------------14--5 h 7 p 5--7--5---------7--5--|
D|------------10------------10-------------------------------7 p 5--------|
A|------------------------------------------------------------------------|
E|------------------------------------------------------------------------|
     Bridge                  Back to intro
e|----------------------0------------------------------------------------|
B|----------------------0------------------------------------------------|
G|-5--7--5--------7--9--------9--7--5--7--7----Play chorse till the end--|
D|-5--7--5-----6--------------7--7--5--7--7------------------------------|
A|-3--5--3--7-----------------------------5------------------------------|
E|-----------------------------------------------------------------------|



************************************

| /   slide up
| \   slide down
| h   hammer-on
| p   pull-off
| ~   vibrato
| +   harmonic
| x   Mute note
| b   Bend
| pb  Pre-bend
| br  Bend release
| pbr Pre-bend release
| brb Bend release bend

************************************
Suggest correction
Give kudos to tab author, rate the tab!
1 2 3 4 5
comments
print report bad tab
5 comments total. Showing first comments.
-1 reply
CorvettecowboY 10 Jan 04, 2013 12:58 AM

A: where's the verses & B: you misspelled Chorus

0 reply
Bwait01 83 Jan 08, 2013 02:44 PM

the verses are the same as your intro

0 reply
Speedmax1940 10 Aug 05, 2013 11:41 PM

Very impressive

guest
You may want to rate the tab now too:
select rating
Wanna post a correction for this tab? Suggest correction