Oops, an error
Loading. Please wait.

Wheels Rolling bass

49 views 6 this week
4 commentsread comments
1 2 3 4 5
3 more votes to show rating
add to favorites
×
Save as Personal and add changes to this tab that will be seen only by you. Learn more ›
×
You can save this tab as Personal to edit and correct it or add notes. All changes will be seen only by you. Learn more »
launch autoscroll
font size
0
reset
guitar tuner
edit
Autoscroll
slow
fast
+/-
esc
set tempo
stop
Author
Difficulty
About this tab version
Full Bass Tab for 5 String, including Outro bass lines. Great melodic bass riffs. Was this info helpful? Yes No
Jason Aldean - Wheels Rolling
Tuning - 5 String bass
tabbed by jjhand



[Verse]

  (0:27)
G|----------------------------|-----------------------|-------------------|-get louder--------------|
D|-----------13---------------|-----------------------|-------------------|-------------------------|
A|-13h15--------15-13---------|-12--------13----------|-8-----------------|-13-13-13-13-13-13-13\---|
E|----------------------------|-----------------------|-------------------|-------------------------|
B|----------------------------|-----------------------|-------------------|-------------------------|


[Chorus 1]

G|--------------------------|-------------------------|----------------------|-------------------------|
D|--------------------------|-------------------------|----------------------|-------------------------|
A|---------------1--3-------|-1--1--1-----1---1---1---|----------------------|-------------8-----------|
E|----------1h3--------1h3--|---------------1---------|-1--1--------1--1---1/|-6--6--6-6/8----6--6-----|
B|-1------1-----------------|-------------------------|-----------1----------|---------------------4---|

G|-------------------------------|-----------------------|---------------------|-------------------------|
D|--------------8----------------|-----------------------|---------------------|--------------8----------|
A|---------8h10---10-8\6-6\3-6/8-|-------------5--6--8\--|---------------------|----------6/8------------|
E|-8--8--------------------------|-6--6------------------|-1--1--------1--1--1/|-6--6--------------------|
B|-------------------------------|-----------------------|-----------1---------|-------------------------|



[Verse 2]

G|---------------10-8----------|-----------------------|
D|-10--------8--------10--8h10-|-----------------------|
A|-----------------------------|-----------------------|
E|-----------------------------|-8--------\1-----------|
B|-----------------------------|-----------------------|

   vocals begin 
G|-------------------------|-------------------------|
D|-------------------------|-------------------------|
A|-------------------------|-------------------------|
E|-8--8--8--8--6--6--6--6--|-5--5--5--5--6--6--6--6--|
B|-------------------------|-------------------------|

G|--------------------------|------------------------------|
D|--------------------------|------------------------------|
A|----------6h8-------------|--------------------8----8h10-|
E|-8--8--8------6--6--6--6--|-5---------6-8-8/10---10------|
B|--------------------------|----6-------------------------|

G|-------------------------|-------------------------|
D|-------------------------|-------------------------|
A|-------------------------|-------------------------|
E|-8--8--8--8--6--6--6--6--|-5--5--5--5--6--6--6--6--|
B|-------------------------|-------------------------|

G|-------------------------|--------------------------|
D|-------------------------|--------------------------|
A|-------------------------|--------------------------|
E|-1--1--1--1--1--1--1--1/-|-6--6--6--6--6---6--6--6--|
B|-------------------------|---------------6----------|



[Chorus 2]

G|--------------------------|-------------------------|----------------------|-------------------------|
D|--------------------------|-------------------------|----------------------|-------------------------|
A|---------------1--3-------|-1--1--1-----1---1---1---|----------------------|-------------8-----------|
E|----------1h3--------1h3--|---------------1---------|-1--1--------1--1---1/|-6--6--6-6/8----6--6-----|
B|-1------1-----------------|-------------------------|-----------1----------|---------------------4---|

G|-------------------------------|-----------------------|---------------------|----------------------------|
D|--------------8----------------|-----------------------|---------------------|--------------8-8-8--6-8-6--|
A|---------8h10---10-8\6-6\3-6/8-|-------------5--6--8\--|---------------------|----------6/8---------------|
E|-8--8--------------------------|-6--6------------------|-1--1--------1--1--1/|-6--6-----------------------|
B|-------------------------------|-----------------------|-----------1---------|----------------------------|



[Solo Section]
G|--------------------------|---------------------------|-------------------------------------------------|
D|--------------------------|---------------------------|-------13----13-15-13----------------------------|
A|--------------------------|------------6/8-8-8-8--/10-|-13/15----15----------15-13----------13----------|
E|-1--1--1--1--1---1--1--1--|-1--1/--6h8----------------|----------------------------15-13h15----15-13h15-|
B|---------------1----------|---------------------------|-------------------------------------------------|

G|-------------------------------------------------|
D|-------13----13-15-13----------------------------|
A|-13/15----15----------15-13----------13----------|
E|----------------------------15-13h15----15-13\---|
B|-------------------------------------------------|

G|---------------------------|---------------------------|
D|---------------------------|---------------------------|
A|---------------------------|---------------------------|
E|-1--1--1--1--1---1--1--1---|-1--1--1--1--1---1--1--1---|
B|---------------1-----------|---------------1-----------|

G|----------------------------|---------------------------|
D|----------------------------|---------------------------|
A|----------------5-5-6-6-7-8-|-8-8---8-8-----------------|
E|-6--6--6--6--6--------------|-----8---------------------|
B|----------------------------|-------------6-------------|



[Bridge]
G|----------------------------|-------------------------|--------------------|
D|----------------------------|-------------------------|--------------------|
A|----------------------------|---------13h15--13-------|--------------------|
E|---rest---------------------|--------------------15\--|---------mute-------|
B|----------------------------|-------------------------|-6-------------6\---|



[Final Chorus]
G|--------------------------|-------------------------|----------------------|---------------------------|
D|--------------------------|-------------------------|----------------------|---------------------------|
A|---------------1--3-------|--------------------6--8\|----------------------|---------------------------|
E|----------1h3--------1h3--|-6--6--6-----6-8-9-------|-1--1--------1--1---1/|-6--6--6--6/8-6---6--6-----|
B|-1------1-----------------|-------------------------|-----------1----------|-----------------------4---|

G|-------------------------------|-----------------------|---------------------|----------------------------|
D|--------------8----------------|-----------------------|---------------------|--------------8-8-8--6-8-6--|
A|---------8h10---10-8\6-6\3-6/8-|-------------5--6--8\--|---------------------|----------6/8---------------|
E|-8--8--------------------------|-6--6------------------|-1--1--------1--1--1/|-6--6-----------------------|
B|-------------------------------|-----------------------|-----------1---------|----------------------------|


[Outro]
   (3:10)
G|-----------------------------|-------------------------|--------------------------------|
D|-----------------------------|-------------------------|--------------------------------|
A|--------------6---6-----6/8--|----------------5--6--7--|-8-8-8---6h8-8---8---8---8-/13--|
E|-8--8--8--6/8---8----8-------|-6--6--6--6--6-----------|-------------------8------------|
B|-----------------------------|-------------------------|--------------------------------|

G|----------------------------------------------|---------------------------------|
D|-------13---------------------13--------------|----------------6----------------|
A|-13h15----15-15---15-15-13h15----15-15---15\--|-----------6h8----8--6h8---------|
E|----------------------------------------------|-8--8--------------------8--8\---|
B|----------------------------------------------|---------------------------------|

G|-------------------------|-------------------------------|
D|-------------------------|-------------------------------|
A|----------------5--6--7--|-8-8-8-88-6h8-8-8--8--8----13--|
E|-6--6--6--6--6-----------|-------------------------------|
B|-------------------------|-------------------------------|

   (3:33)
G|-------------------------------------------------|---------------------------------|
D|-------13----13----------------------------------|----------------6----------------|
A|-13h15----15----15-15-15-13----------13----------|-----------6h8----8--6h8-8-------|
E|----------------------------15-13h15----15-13h15-|-8--8--8--------------------8\---|
B|-------------------------------------------------|---------------------------------|

G|--------------------------|-------------------------------|
D|--------------------------|-------------------------------|
A|----------------5--6--7-7-|-8-8-8-8-8---6h8--8-8-8--8-----|
E|-6--6--6--6--6------------|-------------------------------|
B|--------------------------|-------------------------------|

G|---------------------------------|---------------------------|--------------------------|
D|---------------------------------|---------------------------|--------------------------|
A|---------6---6---6-------6-------|---------------------------|----------------4--5--7-7-|
E|-8-8-6h8---8-------8-6h8---8-6---|-8--8--8--8--8-6-8---8--8--|-6--6--6--6--6------------|
B|---------------------------------|---------------------------|--------------------------|

   (3:57)
G|-----------------------------|---------------------------------------|
D|-----------------------------|---------------------------------------|
A|-8-8-8-8-8---6-8-8-8-8---8---|-15-15-15-15-15---/15---15-15-15--15---|
E|-----------------------------|---------------------------------------|
B|-----------------------------|---------------------------------------|

G|-----------------------------|-----------------------------|------------------------------|
D|------------6----------------|------------6----------------|------------------------------|
A|--------6h8---8-6h8----------|--------6h8---8-6p5----------|-8---8-8-8-------6---6--8--8/-|
E|-8--8---------------8---8\---|-6--6---------------6-6-8-8--|-------------6h8---8----------|
B|-----------------------------|-----------------------------|------------------------------|

G|----------------------------------------|----------------------|
D|------------------------13----13--------|----------------------|
A|-15-15-15-15-15---13/15----15------15---|-15---------------15--|
E|----------------------------------------|----------------------|
B|----------------------------------------|----------------------|

G|--------------------|----------------------|-----------------------|
D|--------------------|----------------------|-----------------------|
A|-13-----------------|-8--------------------|-----------------------|
E|--------------------|----------------------|-----------------------|
B|--------------------|----------------------|-1---------------------|

************************************
KEY

| h   Hammer-on
| p   Pull-off
| /   Slide up
| \   Slide down
| ~   Vibrato

************************************

            
            
Suggest correction
Creating personal tab
Creating personal tab
You can edit any tab online and save it as your Personal.

You can edit, replace or remove any tab part or add personal notes – all changes will be seen only by you.

Personal tabs can be accessed anytime from any device, even offline.
Learn more »
Give kudos to tab author, rate the tab!
1 2 3 4 5
comments
print report bad tab
4 comments total. Showing first comments.
0 reply
georgeparham1 10 Apr 06, 2017 10:06 AM

how do I hear this bass line?

0 reply
georgeparham1 10 Apr 06, 2017 10:45 AM

I mean how do I hear your transcribed bass line? Also, without notation, I cannot decipher the rythm.

guest
You may want to rate the tab now too:
select rating
Wanna post a correction for this tab? Suggest correction