Oops, an error
Loading. Please wait.

So Long tab

25 views 3 this week
no commentswrite comment
1 2 3 4 5
3 more votes to show rating
add to favorites
×
Save as Personal and add changes to this tab that will be seen only by you. Learn more ›
×
You can save this tab as Personal to edit and correct it or add notes. All changes will be seen only by you. Learn more »
launch autoscroll
font size
0
reset
how to read this tab
guitar tuner
edit
Autoscroll
slow
fast
+/-
esc
set tempo
stop
Author
Jason Anderson - So Long


Tabbed by Avi Yaacov
Israel, August 4, 2016


This is a beautiful song from a great songwriter, that is yet to be known widely enough...


First Part:

variations on B    C#m
e|--2-----0---|-------|
B|--4-----4---|---5---|
G|--4-----4---|---6---|
D|--4-----4---|---6---|
A|------------|---4---|
E|------------|-------|


B                                               B
sitting in your sister's volvo, in the parking lot
B                           C#m             B
of a chinese restaurant, in salem, new hampshire


B                                       B
listening to elliot smith, on compact disks
B                       C#m              B
his third album sounds, pretty good, mhmm


B                                               B
all i want, at least right now, is to be close to you
B                                       C#m
the smell of your hair, is literally amazing, honestly


B
this is like one of those awesome dreams
B
where you get to hang out with the guys from fugazi
B
and you're so frustrated and angry,
B
that it was just a dream


B                                       B
but this is not goodbye, this is just goodnight
B                                       B                               
go back to massachusetts, and i'm to the north
C#m                                     B
i'll see you in six or seven days, go.





Build up (second part of song):
B,  C#m, E, E/C#


Like:
    B  C#m  E   E/C#   B   C#m E  E/C#
e|------------------|--------------0--|
B|----------9---9---|--4---5---0---0--|
G|--8--10---9---9---|--4---6---1---1--|
D|--9--11---9---9---|--4---6---2---2--|
A|--9--11---7-------|--2---4---2---4--|
E|--7--9--------9---|----------0------|


With the singing:


B                               C#m
the best thing in the world
      E                       E/C#
is to love someone, and they love you back. 





with this in back:
e|--------11-----|
B|-----12--------|
G|--11-----------|
D|---------------|
A|---------------|
E|---------------|



Amazing solo:
e|-------------|-----------------------------------------------------|
B|-------------|-----------------------------------------------------|
G|-------------|*---------------------------------------------------*|
D|-------9vvv--|*--11/13--11/13--11/13---11/13--11/13--11/13--11vv--*|
A|--9h11-------|-----------------------------------------------------|
E|-------------|-----------------------------------------------------|

e|-------------------------|
B|-------------------------|
G|-------------------------|
D|--9-11--13-11--9-11-9vv--|
A|-------------------------|
E|-------------------------|

e|---------------------------------------------------|
B|---------------------------------------------------|
G|---------------------------------------------------|
D|--11/13--11/13--11/13---11/13--11/13--11/13--11vv--|
A|---------------------------------------------------|
E|---------------------------------------------------|

e|---------------------------------------------------------------------|
B|---------------------------------------------------------------------|
G|------11-----------------/11vvv-------------------------16-16vvvvvv--|
D|--/13----13-11----/13vvv---------/14vvv--/16vvv---16h18--------------|
A|---------------------------------------------------------------------|
E|---------------------------------------------------------------------|






            
            
Suggest correction
Creating personal tab
Creating personal tab
You can edit any tab online and save it as your Personal.

You can edit, replace or remove any tab part or add personal notes – all changes will be seen only by you.

Personal tabs can be accessed anytime from any device, even offline.
Learn more »
Give kudos to tab author, rate the tab!
1 2 3 4 5
comments
print report bad tab
guest
You may want to rate the tab now too:
select rating
Wanna post a correction for this tab? Suggest correction