Oops, an error
Loading. Please wait.

Altitudes Tab

version 1
version 1

Whole song

7,546 views 15 this week
no commentswrite comment
1 2 3 4 5
worth learning
x 3
add to favorites
launch autoscroll
font size
0
reset
how to read this tab
guitar tuner
Autoscroll
slow
fast
+/-
esc
set tempo
stop
Help us to improve Ultimate-Guitar.com Take our survey!
×
================================================================================
         Title : Altitudes
        Artist : Jason Becker
         Album : Perpetual Burn
Transcribed by : Dave Zatuchney  Davedzny@aol.com
================================================================================

Legend
------

 h  = hammer-on
 p  = pull-off
 b  = bend
 r  = bend release
 /  = slide up/down
<5> = natural harmonic
[5] = artifical harmonic
 ~  = vibrato
 tr = trill



Sweep pattern starting at 1:58 

E|-7-12-7---------7-12-7---------7-12-7-------------------------7-12-7-
B|--------10---10--------10---10--------10-------------------10--------
G|-----------9--------------9--------------9---------------9-----------
D|-------------------------------------------10---------10-------------
A|----------------------------------------------12-7-12----------------
E|---------------------------------------------------------------------


E|---------7-12-7---------7-14-7---------7-12-7---------7--14-10-------
B|-10---10--------10---10--------10---10--------10---10----------12----
G|----9--------------9--------------9--------------9----------------11-
D|---------------------------------------------------------------------
A|---------------------------------------------------------------------
E|---------------------------------------------------------------------


E|----10-14-10----------10-14-10----------10-14-10----------10--19-14-10-
B|-12----------12----12----------12----12----------12----12--------------
G|----------------11----------------11----------------11-----------------
D|-----------------------------------------------------------------------
A|-----------------------------------------------------------------------
E|-----------------------------------------------------------------------


E|----------------------10-14--19-14-10----------------------10-14-10----
B|-12----------------12-----------------12----------------12----------12-
G|----11----------11-----------------------11----------11----------------
D|-------12----12-----------------------------12----12-------------------
A|----------14-----------------------------------14----------------------
E|-----------------------------------------------------------------------


E|-------10-14-10----------10--19-14-10----------10-14-10----------10--
B|----12----------12----12--------------12----12----------12----12-----
G|-11----------------11--------------------11----------------11--------
D|---------------------------------------------------------------------
A|---------------------------------------------------------------------
E|---------------------------------------------------------------------


E|-19-14----------14-19-14----------14-21-14----------14-19-14----------
B|-------15----15----------15----15----------15----15----------15----15-
G|----------14----------------14----------------14----------------14----
D|----------------------------------------------------------------------
A|----------------------------------------------------------------------
E|----------------------------------------------------------------------


E|-14--19-14-10-------------------------10-14--19-14-10----------------
B|--------------12-------------------12-----------------12-------------
G|-----------------11-------------11-----------------------11----------
D|--------------------12-------12-----------------------------12-------
A|-----------------------14-14-----------------------------------14-14-
E|---------------------------------------------------------------------


E|----------10-14--19-14-10-------------------------10--14-10-----15-10-
B|-------12-----------------12-------------------12-----------12--------
G|----11-----------------------11-------------11------------------------
D|-12-----------------------------12-------12---------------------------
A|-----------------------------------14-14------------------------------
E|----------------------------------------------------------------------


E|-----14-10-----12-10----------------------10-14-10----------10-17-10-
B|-12--------12--------12----------------12----------12----12----------
G|------------------------11----------11----------------11-------------
D|---------------------------12----12----------------------------------
A|------------------------------14-------------------------------------
E|---------------------------------------------------------------------


E|----------10-17-10-----------------------------------------------------
B|-12----12----------12--------------------------------------------------
G|----11----------------14-11----------11-14-11-----------11-------------
D|----------------------------12----12----------12-----11----11----------
A|-------------------------------14-----------------13----------13--9-13-
E|-----------------------------------------------------------------------


E|----------9-14-9----------9-14-9-14-9-----------------10-14--21-14----
B|-------11--------11----11-------------11-----------12--------------15-
G|----11--------------11-------------------11-----11--------------------
D|-11------------------------------------------12-----------------------
A|----------------------------------------------------------------------
E|----------------------------------------------------------------------


E|---------------------------------------------------|-
B|-----------------------15--------------------------|-
G|-14-----------------14----14--------------14-------|-
D|----16-----------16----------16--------16----16----|-
A|-------17--12-17-----------------12-17----------17-|-
E|---------------------------------------------------|-
Suggest correction
Give kudos to tab author, rate the tab!
1 2 3 4 5
comments
print report bad tab
guest
You may want to rate the tab now too:
select rating
Wanna post a correction for this tab? Suggest correction