Oops, an error
Loading. Please wait.

Altitudes Tab

version 2
version 2

Whole song

68,095 views 198 this week
9 commentsread comments
1 2 3 4 5
excellent!
x 22
add to favorites
launch autoscroll
font size
0
reset
how to read this tab
guitar tuner
Autoscroll
slow
fast
+/-
esc
set tempo
stop
Help us to improve Ultimate-Guitar.com Take our survey!
×
Author
heron 218
Bm                 D              Bm             F#sus4         F#
e|-----------------------------------------------------------------------------|
B|-----------------------------------------------------------------------------|
G|-keyboard--------------------------------------------------------------------|
D|-----------------------------------------------------------------------------|
A|-----------------------------------------------------------------------------|
E|-----------------------------------------------------------------------------|

Listen to Jason's phrasing and use of vibrato bar from the cd.

                  «          «     «
e|-----------------------------------------------------------------------------|
B|--------------14b~-------11b---11b~----rb11~-----11^12^11^14---15b~----------|
G|-/11~--11-11-----------------------------------------------------------------|
D|-----------------------------------------------------------------------------|
A|-----------------------------------------------------------------------------|
E|-----------------------------------------------------------------------------|

e|------------------------------9----9-12-10-9-/15-14^15^14--------------------|
B|--15b--rb15-----14~---------10---10----------------------15------------------|
G|--------------------------11----11-------------------------16-----\11~-------|
D|-----------------------------------------------------------------------------|
A|-----------------------------------------------------------------------------|
E|-----------------------------------------------------------------------------|
            «        «     «     «       «
e-----------------------------------------------------------------------------|
B----------14b~-----11b---11b---11b-----11b----rb11--12b----rb11~---11^12^11^-|
G-11--11----------------------------------------------------------------------|
D-----------------------------------------------------------------------------|
A-----------------------------------------------------------------------------|
E-----------------------------------------------------------------------------|

e|----------------------------15-14--------------------10-14-15--17-14-15------|
B|-14---15b~--rb-17b~-----17b-------17-15-14---------12------------------------|
G|------------------------------------------16-15~-----------------------------|
D|-----------------------------------------------------------------------------|
A|-----------------------------------------------------------------------------|
E|-----------------------------------------------------------------------------|

e|--------------------14-15-17-12-14-15----------------------------------------|
B|-17-14-15--17-14-15-------------------12-14-15-------------------------------|
G|-----------------------------------------------11--------------11-12-14------|
D|-------------------------------------------------11-12-9-11--14--------------|
A|-----------------------------------------------------------------------------|
E|-----------------------------------------------------------------------------|

e|-----------------------------------------------------------------------------|
B|-----------------------------------------------------------------------------|
G|-----------------------------------------------------------------------------|
D|-11-9-11~--------------------------------------------------------------------|
A|-----------------------------------------------------------------------------|
E|-----------------------------------------------------------------------------|
                    «
-----------------------------------------------------------------------------|
------------------14b~-------------------------15b--rb15--15b~---------------|
--/11~----11--11---------11-11--12~----12--12-------------------12--12--12---|
-----------------------------------------------------------------------------|
-----------------------------------------------------------------------------|
-----------------------------------------------------------------------------|
                                         «                      «
------------------------------------------------------------------------------|
----------------17b--rb17-17b~-----19--19b---rb19--17^15------19b---rb19-^17--|
--/15~------15----------------------------------------------------------------|
------------------------------------------------------------------------------|
------------------------------------------------------------------------------|
------------------------------------------------------------------------------|

                                                                     «     t
e|------------------14---------------------------------------------------------|
B|--15---17b~----17b--17-14----------------------------------------14b---(18)--|
G|-------------------------16-16-15-12-15-16-15-12-\11~-----11-11--------------|
D|-----------------------------------------------------------------------------|
A|-----------------------------------------------------------------------------|
E|-----------------------------------------------------------------------------|
    «
-----------------------------------------------------------------------------|
--14b~----------------------------15b--rb15-15b~---------------------17b--rb-|
---------11--11---12~---12-12-12-----------------12-12-12-15~---15-15--------|
-----------------------------------------------------------------------------|
-----------------------------------------------------------------------------|
-----------------------------------------------------------------------------|
                       w/bar          «
-------------------------------------------------------------------------------|
-17---17b~----11-12-14-14b«~--(^15)^14b~-----14-14-14--16b~-----16b--rb16------|
-------------------------------------------------------------------------------|
-------------------------------------------------------------------------------|
-------------------------------------------------------------------------------|
-------------------------------------------------------------------------------|

e|-----------------------------------------------------------------------------|
B|----14~-----14-18^14^18---17b~-----------------------------------------------|
G|-----------------------------------------------------------------------------|
D|-----------------------------------------------------------------------------|
A|-----------------------------------------------------------------------------|
E|-----------------------------------------------------------------------------|
       «            «                        «      «           «
-----------------------------------------------------------------------------|
------7b--b--rb7----------------------------------11b--rb11---11b------------|
-------------------8b~----7--6--7~--9~-----10b~------------------------------|
--9~-------------------------------------------------------------------------|
-----------------------------------------------------------------------------|
-----------------------------------------------------------------------------|
                                                        «              «
------------------7-----10---14-----17~----17^14-----------------------------|
-7--8---7^8^7--7---7------7----7----------------15----14b-----rb14--(14b)-rb-|
-------------7---------------------------------------------------------------|
-----------------------------------------------------------------------------|
-----------------------------------------------------------------------------|
-----------------------------------------------------------------------------|

e|-------------------------------------------------------------------------------|
B|-^14---14-12^14^12-------------------------14-12^14^12-------------------------|
G|------------------12--11~-----------------------------12-11---11-9-7~----------|
D|----------------------------11b«---rb11~---------------------------------------|
A|-------------------------------------------------------------------------------|
E|-------------------------------------------------------------------------------|

e|--------------------------------------------------------------------------------|
B|--------------------------------------------------------------------------------|
G|--7--4^7-/9~----7-6^7~--9~---10b«~---11-12--11b«--rb11^9-11~-----9---7^9^7------|
D|--------------------------------------------------------------------------------|
A|--------------------------------------------------------------------------------|
E|--------------------------------------------------------------------------------|

e|-------------------------------------------------------------------------------|
B|---------------------------------------------------------------------12~-------|
G|-6--7---9--7-6-----------------6--6b«~------9---9~----11--9----7~--------------|
D|-----------------------------9----------------9--------------------------------|
A|-----------------7-5-4-----9---------------------------------------------------|
E|----------------------7--------------------------------------------------------|

e|--/14~-----------------------------------------------------------------------|
B|-----------------------------------------------------------------------------|
G|-----------------------------------------------------------------------------|
D|-----------------------------------------------------------------------------|
A|-----------------------------------------------------------------------------|
E|-----------------------------------------------------------------------------|

e|-----------------------------------------------------------------------------|
B|-----------------------------------------------------------------------------|
G|-----------------------------------------------------------------------------|
D|-------------------------7---------------------------------------------------|
A|-------7-----------7-9-10-10-9-7-10-9-7--------------------------------------|
E|-7-9-10-10-9-7-9-10--------------------10-9-7~-------------------------------|


e|-12-7-----7---12-7-----7---12-7-------------7--------------------------------|
B|-----8--8---------8--8---------8-----------8---------------------------------|
G|-------9------------9-----------9---------9----------------------------------|
D|---------------------------------9-------9-----------------------------------|
A|----------------------------------10-7-10------------------------------------|
E|-----------------------------------------------------------------------------|

e|-12-9-----9--12-9-----9----14-9-----9---12-9-----9---------------------------|
B|-----10-10-------10-10---------10-10--------10-10----------------------------|
G|-------9-----------9-------------9------------9------------------------------|
D|-----------------------------------------------------------------------------|
A|-----------------------------------------------------------------------------|
E|-----------------------------------------------------------------------------|

e|--14-10------10-14-10------10-14-10------10-14-10------10--------------------|
B|-------12--12--------12--12--------12--12--------12--12----------------------|
G|---------11------------11------------11------------11------------------------|
D|-----------------------------------------------------------------------------|
A|-----------------------------------------------------------------------------|
E|-----------------------------------------------------------------------------|

e|-19-14----------------------14-19-14----------------------14-----------------|
B|------15------------------15--------15------------------15-------------------|
G|--------16-\11------11-/16------------16-\11------11-/16---------------------|
D|--------------12--12------------------------12--12---------------------------|
A|----------------14----------------------------14-----------------------------|
E|-----------------------------------------------------------------------------|

e|-17-14------14--17-14------14--19-14------14--17-14------14------------------|
B|------15--15---------15--15---------15--15---------15--15--------------------|
G|--------14-------------14-------------14-------------14----------------------|
D|-----------------------------------------------------------------------------|
A|-----------------------------------------------------------------------------|
E|-----------------------------------------------------------------------------|

e|--18-14------14---18-14------14--20-14------14--18-14------14----------------|
B|-------14--14----------14--14---------14--14---------14--14------------------|
G|---------15--------------15-------------15-------------15--------------------|
D|-----------------------------------------------------------------------------|
A|-----------------------------------------------------------------------------|
E|-----------------------------------------------------------------------------|

e|--19-14--------------------14----19-14--------------------14-----------------|
B|-------15----------------15-----------15----------------15-------------------|
G|---------16------------16---------------16------------16---------------------|
D|-----------16--------16-------------------16--------16-----------------------|
A|-------------17-14-17-----------------------17-14-17-------------------------|
E|-----------------------------------------------------------------------------|

e|--19-14--------------------14----19-14--------------------14-----------------|
B|-------15----------------15-----------15----------------15-------------------|
G|---------16------------16---------------16------------16---------------------|
D|-----------16--------16-------------------16--------16-----------------------|
A|-------------17-14-17-----------------------17-14-17-------------------------|
E|-----------------------------------------------------------------------------|

e|-15-10-----15-10-----------------10-15-10------------------------------------|
B|------12--------12-------------12--------12----------------------------------|
G|--------12--------12---------12------------12--------------------------------|
D|--------------------12-----12------------------------------------------------|
A|----------------------14-10--------------------------------------------------|
E|-----------------------------------------------------------------------------|

e|--17-12------17-12------17-12--------------------12--------------------------|
B|-------14---------14---------14----------------14----------------------------|
G|---------14---------14---------14------------14------------------------------|
D|---------------------------------14--------14--------------------------------|
A|-----------------------------------16-12-16----------------------------------|
E|-----------------------------------------------------------------------------|

e|----------------------14-10-----14-10--------------10------------------------|
B|---------------------------12--------12----------12--------------------------|
G|---7-11-7---7-11-7-----------11--------11------11----------------------------|
D|--9------9-9------9----------------------12--12------------------------------|
A|-9--------9--------9-----------------------14--------------------------------|
E|-----------------------------------------------------------------------------|


e|-/17-14^17^14--------------14------------------------------------------------|
B|-------------14----------14--------------------------------------------------|
G|---------------14------14------------11-16-11------11-16-11------------------|
D|-----------------16--16------------12--------12--12--------12----------------|
A|-------------------16------------14------------14------------14--------------|
E|-----------------------------------------------------------------------------|

e|------------------------------------------12-14--12-14-15--------------------|
B|------------------------11-12--11-12-14-15-----15----------------------------|
G|--------9-11-9--9-11-12------14----------------------------------------------|
D|-9-11-12------14-------------------------------------------------------------|
A|-----------------------------------------------------------------------------|
E|-----------------------------------------------------------------------------|

e|-------------------------------------------------------12-14-12--12-14-15----|
B|--------------------------11-12-14-15-14-12-10-12-14-15--------15------------|
G|--------------9-11-9-11-12---------------------------------------------------|
D|-12-11-9-11-12---------------------------------------------------------------|
A|-----------------------------------------------------------------------------|
E|-----------------------------------------------------------------------------|

e|--/15-14--14-15-17----17-15--15-17-19---19-17--17-19-21-22-------------------|
B|--------17-----------------19----------------20------------------------------|
G|-----------------------------------------------------------------------------|
D|-----------------------------------------------------------------------------|
A|-----------------------------------------------------------------------------|
E|-----------------------------------------------------------------------------|

e|-----------------------------------------------------------------------------|
B|-----------------------------------------------------------------------------|
G|------------------------------------------------------------7-9-11-----------|
D|-------------------------7----------------------------7-9-11-------9-11-12---|
A|-------7-----------7-9-10-10-9-7-10-9-7---------7-9-10-----------------------|
E|-7-9-10-10-9-7-9-10--------------------10-9-7-10-----------------------------|

e|-----------------------------------------------------------------------------|
B|-----------------------------------------------------------------------------|
G|-9-11-12-14-12-11--12--------------------------------------------------------|
D|-----------------14--14-12-11------------------------------------------------|
A|-----------------------------------------------------------------------------|
E|-----------------------------------------------------------------------------|

e|-2-------2-------2---------------2-------------------------------------------|
B|--3-2-2-3-3-2-2-3-3-2-------2---2-2-------2---3-2----------------------------|
G|-----4-------4-------4-----4-4-4---4-----4-4-----4---------------------------|
D|----------------------5-4-5---5-----5-4-5---5-----5-4----5-4-----------------|
A|-----------------------------------------------------5-4----5-4--2-4---2-4-2-|
E|--------------------------------------------------------------------2-3------|

e|-----------------------------------------------------------------------------|
B|--------------------3---------------5-3-2----------5-3-2---------------------|
G|---------------2-4-6-6-4-2---------------4-2------------4-2------------------|
D|---------2-4-5------------5-4-2-------------5-4-2----------5-4-2-------------|
A|----2-4-5----------------------5-4---------------5--------------5------------|
E|--3--------------------------------------------------------------------------|

e|------------------------------------------------------------3----------------|
B|--------------------------------------------3----------3-5-7-7-5-3--3-5-7----|
G|--------------------------------------2-4-6--6-4-2-4-6-----------------------|
D|----------2---------2-4-5-4-5-4-2-4-5----------------------------------------|
A|-4-2-2-4-5-5-4-2-4-5---------------------------------------------------------|
E|----5------------------------------------------------------------------------|

e|--3-5-7----9-7-------7-9-10--------------------------------------------------|
B|--------------10-8-10--------------------------------------------------------|
G|----------------------------------------------------------------------7-9-11-|
D|---------------------------------------------------------7-9-11-7-9-11-------|
A|--------------------------------------------7-9-10-7-9-10--------------------|
E|-------------------------------7-9-10-7-9-10---------------------------------|


e|----------------------9-10-12-9-10-12---14-10--------------------------------|
B|-------8-10-12-8-10-12-----------------------12------------------------------|
G|-7-9-11----------------------------------------11-\-7------------------------|
D|-----------------------------------------------------9-----------------------|
A|------------------------------------------------------9----------------------|
E|-------------------------------------------------------10-7------------------|

e|-----------------------------------------------------------------------------|
B|-----------------------------------------------------------------------------|
G|--------------------------------------4-6-7--7b~----7--6--7--4~--------------|
D|--/5~---4^5^4\2--4b--4--2~-----------4---------------------------------------|
A|-----------------------------5-4-5--5----------------------------------------|
E|-----------------------------------------------------------------------------|

e|-------------------------------------------7-9-10---10^7~---7--7-10-7-----------|
B|-------------------------------------7-8-10------------------10------10-7~------|
G|-3--4--6b«--rb--b«--rb6--4~---------------------------------------------------|
D|--------------------------------9~----------------------------------------------|
A|--------------------------------------------------------------------------------|
E|--------------------------------------------------------------------------------|

                press w/bar              press w/bar   press w/bar
e|--17b---17-15--14-------------------14---------------------------------------|
B|-------------------------------17b-----17------------17b--17-15--------------|
G|---------------------------------------------------------------16~-----------|
D|-----------------------------------------------------------------------------|
A|-----------------------------------------------------------------------------|
E|-----------------------------------------------------------------------------|

This section has 2 harmonised parts. The one transcribed is the arpeggios.

     3x                  3x              3x                 3x

e|-12-7-----7--------14-10------10-----12-7-----7--------10-9------9-----------|
B|-----10-10--------------12--12-----------10-10-------------12--12------------|
G|-------9------------------11---------------9-----------------11--------------|
D|-----------------------------------------------------------------------------|
A|-----------------------------------------------------------------------------|
E|-----------------------------------------------------------------------------|

                     2x

e|--14-10------10--17-14------14--19-15------15/22-19------19---19-15--19------|
B|-------12--12---------15--15---------15--15--------20--20----------15--------|
G|---------11-------------16-------------16------------19----------------------|
D|-----------------------------------------------------------------------------|
A|-----------------------------------------------------------------------------|
E|-----------------------------------------------------------------------------|

     3x                3x

e|-17-12------12-----17-12------12------15--10------10-15-10-------------------|
B|------15--15------------14--14--------------14--14--------14-----------------|
G|--------14----------------14------------------12------------12---------------|
D|--------------------------------------------------------------12-11-12-------|
A|-----------------------------------------------------------------------------|
E|-----------------------------------------------------------------------------|

     3x                    3x                  3x

e|--14-10------10--------14-10------10--------14------10-----------------------|
B|-------12--12---------------14--14------------12--12-------------------------|
G|---------11-------------------12----------------11---------------------------|
D|-----------------------------------------------------------------------------|
A|-----------------------------------------------------------------------------|
E|-----------------------------------------------------------------------------|

e|---16-11------11-----19-16------16----22-19------19-22-19--------------------|
B|--------15--15------------18--18-----------21--21----------------------------|
G|----------16----------------19---------------22------------------------------|
D|-----------------------------------------------------------------------------|
A|-----------------------------------------------------------------------------|
E|-----------------------------------------------------------------------------|

                   2x

e|-21-17-----(17-12)17-12------12----15-12--------------------9-6--------------|
B|------17---------------14--14-----------14-----14-11-----------8-------------|
G|--------18---------------14---------------15--------12----------9-6----------|
D|--------------------------------------------14--------14-11------------------|
A|-----------------------------------------------------------------------------|
E|-----------------------------------------------------------------------------|


e|--15-12----------------------------------------------------------------------|
B|-------14--------------------------------------------------------------------|
G|---------15-12------------------------------12-15----------------------------|
D|--------------14-11--------------------11-14---------------------------------|
A|-------------------13-10----------10-13--------------------------------------|
E|------------------------12-9--9-12-------------------------------------------|


[Solo]

                                                            p.m/pinch harmonics
e|-----------4-----------------------------------------------------------------|
B|--/7b~------4---7b--rb--7b--rb--9b--7~----7-4-7------------------------------|
G|------------------------------------------------6b--rb6^4----6-4-------------|
D|---------------------------------------------------------4------4------------|
A|-----------------------------------------------------------------------------|
E|-----------------------------------------------------------------------------|

e|----------------------------------------------------------14b~---14-11-12b~--|
B|--------------------------------4-7/9---12-9-12--14-12-14--------------------|
G|--6b---6b--rb^4--------------4-6---------------------------------------------|
D|----------------4-2--------6-------------------------------------------------|
A|--------------------4-2~-----------------------------------------------------|
E|-----------------------------------------------------------------------------|
                                               t
e--12-11---19b~---16-19--------16-18-19--22b--(23)--rb22b~--------------------|
B----------------------19b~---------------------------------------------------|
G-----------------------------------------------------------------------------|
D-----------------------------------------------------------------------------|
A-----------------------------------------------------------------------------|
E-----------------------------------------------------------------------------|

e|-------------------------------------------------------------------------------|
B|--17b-17b~-----17-15-14--------------------------------------------------------|
G|-------------------------14-11-------------------------------------------------|
D|------------------------------12-11--------------------------------------------|
A|-----------------------------------12-9-------------5-2-4-5-4b«-rb4~----------|
E|---------------------------------------10-9-7----5-2---------------------------|

e|-----------------------------------------------------------------------------|
B|-----------------------------------------------------------------------5-7-8-|
G|---------------------------------------4-6-7--7-6-4-6-4-----4-6-7-7-6-4------|
D|--------2-4-5-/-7-5-4-5-4---------4-5-7----------------7-5-7-----------------|
A|-5-2-4-5-----------------7-5-4-5-7-------------------------------------------|
E|-----------------------------------------------------------------------------|

               p.h.  p.h.   p.h. p.h.
e|-------------------------------------------------------------------------------|
B|-/-10-8-7----------------------------------------------------------------------|
G|---------9----11~----------11----11---11b«---rb11--b1«---rb11~---------------|
D|-------------------9-9~---9----9-----------------------------------------------|
A|-------------------------------------------------------------------------------|
E|-------------------------------------------------------------------------------|
               w/bar
e----------------------------9-12-9--------------------12-17-12---------------|
B--------/12--10-10~-------10------10----------------14--------14-------------|
G-11-11-------------------9----------9-------------14------------14-----------|
D-------------------------------------11---------14----------------14---------|
A---------------------------------------12--12-16--------------------16-12-16-|
E-----------------------------------------------------------------------------|

e|-------12-17-15----------------------------------------------------------------|
B|-----14------------10-10-8-----------------------------------------------------|
G|---14---------------------9----------------------------------------------------|
D|-14------------------------11-7-----7---------------------9-11-9-------9-11----|
A|-------------------------------10-9--10-9b«--rb9~-----9-10------10-9-10-------|
E|-------------------------------------------------------------------------------|

e|----------------------------------------10-12-14-12-10-----------------------|
B|--------------------------------10-12-14--------------14-12-10---------------|
G|---9-11-12-11-12---------9-11-12------------------------------12-11-9--------|
D|-12----------9--9-9-11-12--------------------------------------------12-11-9-|
A|-----------------------------------------------------------------------------|
E|-----------------------------------------------------------------------------|
                                                               w/bar
e-----------------------------10-12-14-12-10--------------10-12-14~-----------|
B---------------------10-12-14--------------14-12-10-12-14--------------------|
G------9-------9-11-12--------------------------------------------------------|
D-11-12-9-11-12---------------------------------------------------------------|
A-----------------------------------------------------------------------------|
E-----------------------------------------------------------------------------|

             w/bar                   w/bar      3x
e|---10^14^10\9~----14b~--12--------12-16---17-12------------------------------|
B|--------------------------14----14-------------14----------------------------|
G|-------------------------------------------------14--------------------------|
D|---------------------------------------------------14------------------------|
A|-----------------------------------------------------16-12-------------------|
E|-----------------------------------------------------------------------------|

e|---15-10--------------------10----10-14-10------10-----15-10------10-15-10---|
B|--------11----------------11----11--------11--11------------12--12-----------|
G|----------12------------12------------------12----------------12-------------|
D|------------12--------12-----------------------------------------------------|
A|--------------13-10-13-------------------------------------------------------|
E|-----------------------------------------------------------------------------|

e|-\10-7----------------10-15--/19-14------14-21-------------------------------|
B|------8-------------12-------------15--15------------------------------------|
G|-------7----------12-----------------16--------------------------------------|
D|--------9-------12-----------------------------------------------------------|
A|---------10---14-------------------------------------------------------------|
E|-----------------------------------------------------------------------------|

e|-----------------------------------------------------------------------------|
B|-----------------------------------------------------------------------------|
G|-----------------------------------------------------------------------------|
D|-------------------------7-----------------------------8-------------8-10-8--|
A|-------7-----------7-9-10-10-9-7-10-9-7---------8-10-12-12-10-8-10-12--------|
E|-7-9-10-10-9-7-9-10---------------------10-9-7-------------------------------|

e|-----------------------------------------------------------------------------|
B|-----------------------------------------------------------------------------|
G|-----------------------------------------------------------------------------|
D|---------------8-10-8-------------8------------------------------------------|
A|-12-10-8-10-12-------12-10-8-10-12-12-10-8-----------------------------------|
E|-----------------------------------------------------------------------------|


[Ending theme]
(Listen to the cd for Jason's phrasing)

            «   tap     «
e|----7-9--9b---(13)--^(9b)--rb9-7---------------------------------------------|
B|--7------------------------------7---10--8-8~--------------------------------|
G|------------------------------------------------9---11---12---14---12-11-9---|
D|-----------------------------------------------------------------------------|
A|-----------------------------------------------------------------------------|
E|-----------------------------------------------------------------------------|

e|-----------------------------------------------------------------------------|
B|-10~-------------------------------------------------------------------------|
G|-----9/11~-------------------------------------------------------------------|
D|-----------------------------------------------------------------------------|
A|-----------------------------------------------------------------------------|
E|-----------------------------------------------------------------------------|
               «    tap       «
e-----13-15---15b----(19)---^(15b)---rb15-13----------------------------------|
B--13---------------------------------------13--16--14-14~--------------------|
G-----------------------------------------------------------------------------|
D-----------------------------------------------------------------------------|
A-----------------------------------------------------------------------------|
E-----------------------------------------------------------------------------|

e|-----------------------------------------------------------------------------|
B|-----------------------------16----------------------------------------------|
G|--15--17---18-/-20--18-17-15-----15--17~-------------------------------------|
D|-----------------------------------------------------------------------------|
A|-----------------------------------------------------------------------------|
E|-----------------------------------------------------------------------------|

            «   tap     «
e|----7-9--9b---(13)--^(9b)--rb9-7---------------------------------------------|
B|--7------------------------------7---10--8-8~--------------------------------|
G|------------------------------------------------9---11---12---14---12-11-9---|
D|-----------------------------------------------------------------------------|
A|-----------------------------------------------------------------------------|
E|-----------------------------------------------------------------------------|

e|----------------/14-12-10----------------------------------------------------|
B|-10~----------------------14-12-10-------------------------------------------|
G|-----9/11~------------------------12-11-9------------------------------------|
D|-----------------------------------------12-11--12-11-9-\7-------------------|
A|-----------------------------------------------------------10-9-7------------|
E|-----------------------------------------------------------------10-9-7-9-10-|


                                    w/bar    w/bar  w/bar   w/bar
e|-----------------------------------------------------------------------------|
B|--------------------8-10-12----------12--------------------------------------|
G|--------------7-9-11------------------------12-----11------10~---------------|
D|--------7-9-11---------------------------------------------------------------|
A|--7-9-10---------------------------------------------------------------------|
E|-----------------------------------------------------------------------------|



************************************

| (n)  Ghost note
| t    Tapping
| b    Bend
| /    Slide up
| \    Slide down
| ~    Vibrato

************************************ 
Suggest correction
What's this?
You can suggest a correction to this tab. Community and Mods will review your correction and vote to approve or reject it.
comments
print report bad tab
9 comments total. Showing first comments.
+4 reply
SomeKindOfKirk 216 wrote on April 5 2006, 02:35 pm

Looks Pretty Damn Good To Me

+4 reply
srv_king 976 wrote on November 30 2006, 08:03 pm

wow thats a hard song

+4 reply
texmex789 39 wrote on June 25 2008, 12:23 pm

"Great beard of zues!" Awesome job man!

guest
You may want to rate the tab now too:
select rating
Please do not post tabs as comments. Select "correction" instead!