Oops, an error
Loading. Please wait.

Eleven Blue Egyptians tab

version 2
version 2

Whole song

Interactive

34 views 3 this week
no commentswrite comment
1 2 3 4 5
3 more votes to show rating
add to favorites
×
Save as Personal and add changes to this tab that will be seen only by you. Learn more ›
×
You can save this tab as Personal to edit and correct it or add notes. All changes will be seen only by you. Learn more »
launch autoscroll
font size
0
reset
how to read this tab
guitar tuner
edit
Autoscroll
slow
fast
+/-
esc
set tempo
stop
Tuning:  Standard
Instagram (guitar videos): Devin.Mysyk

e|-----------------------------------------|
B|-----------------------------------------|
G|--7-6-------7-6-------7-6----------------|
D|------8-7-5-----8-7-5-----8-7-5----------|
A|--------------------------------8-7-5-4--|
E|-----------------------------------------|

[Intro]
e|-------------------------------|--------------------------|---------------------------|
B|-------------------------------|--------------------------|---------------------------|
G|-------------------------------|--------------------------|-----------------5---7--10-|
D|--2-----3-2-----2-----3-2------|--2-----3-2--------2----5-|-2-----3-2-------3---5---8-|
A|--0-0-0-1-0-0-0-0-0-0-1-0-0-0--|--0-0-0-1-0-0-0--0-0----3-|-0-0-0-1-0-0-0-0---0---0---|
E|-------------------------------|----------------------0---|---------------------------|

e|---------------------------------------------------------|
e|---------------------------------------------------------|
G|-----------------7-6-------7-6-------7-6-----------------|  (x2)
D|-2-----3-2-----------8-7-5-----8-7-5-----8-7-5-----------|
A|-0-0-0-1-0-0-0----------------------------------8-7-5-4--|
E|---------------------------------------------------------|

[Verse]
e|-----------|----------------------|------------|
B|-----------|----------------------|------------|
G|-----------|----------------------|------------|
D|-------6b7-|-7-7b8r7--6-----------|------------|
A|--7--8-----|------------8-7-5-5/7-|-5-4--------|
E|-----------|----------------------|-----5b6r5--|

e|-----------------------------------------|
B|-----------------------------------------|
G|--7-6-------7-6-------7-6----------------|  (x2)
D|------8-7-5-----8-7-5-----8-7-5----------|
A|--------------------------------8-7-5-4--|
E|-----------------------------------------|

[Pre-Chorus]
e|----------------------------|------------------|------------10-13-12-|
B|----------------------------|------------------|---------10----------|
G|--9/--------9/12-9h12p9-----|--10--9h10p9p7-9--|--7-9-10-------------|
D|-------9h12-------------7/--|------------------|---------------------|
A|----------------------------|------------------|---------------------|
E|----------------------------|------------------|---------------------|

e|--12h13p12p10-12p10----10--------------------------|
B|--------------------13----12h13p12p10-12p10--------|
G|--------------------------------------------12-10--|
D|---------------------------------------------------|
A|---------------------------------------------------|
E|---------------------------------------------------|

e|----------------------------|------------------|------------10-13-12-|
B|----------------------------|------------------|---------10----------|
G|--9/--------9/12-9h12p9-----|--10--9h10p9p7-9--|--7-9-10-------------|
D|-------9h12-------------7/--|------------------|---------------------|
A|----------------------------|------------------|---------------------|
E|----------------------------|------------------|---------------------|

[Chorus]
(*Use Whammy*)
e|----------------|--------------------------|---------------|----------|
B|----------------|--------------------------|---------------|----------|
G|--9-10-7~--7-5--|-9-10-12~--10h12p10p9-10--|--7-9-5~--5-4--|-7-9-10~--|
D|----------------|--------------------------|---------------|----------|
A|----------------|--------------------------|---------------|----------|
E|----------------|--------------------------|---------------|----------|

e|----------------|--------------------------|---------------|------------|
B|----------------|--------------------------|---------------|------------|
G|--9-10-7~--7-5--|-9-10-12~--10h12p10p9-10--|--7-9-5~--5-4--|-7-9-10~--9-|
D|----------------|--------------------------|---------------|------------|
A|----------------|--------------------------|---------------|------------|
E|----------------|--------------------------|---------------|------------|

e|-----------------------------------------|
B|-----------------------------------------|
G|--7-6-------7-6-------7-6----------------|
D|------8-7-5-----8-7-5-----8-7-5----------|
A|--------------------------------8-7-5-4--|
E|-----------------------------------------|

[Verse 2]
e|-----------|----------------------|------------|
B|-----------|----------------------|------------|
G|-----------|----------------------|------------|
D|-------6b7-|-7-7b8r7--6-----------|------------|
A|--7--8-----|------------8-7-5-5/7-|-5-4--------|
E|-----------|----------------------|-----5b6r5--|

e|-----------------------------------------|
B|-----------------------------------------|
G|--7-6-------7-6-------7-6----------------|  (x2)
D|------8-7-5-----8-7-5-----8-7-5----------|
A|--------------------------------8-7-5-4--|
E|-----------------------------------------|

[Pre-Chorus 2]
e|----------------------------|------------------|------------10-13-12-|
B|----------------------------|------------------|---------10----------|
G|--9/--------9/12-9h12p9-/7--|--10--9h10p9p7-9--|--7-9-10-------------|
D|-------9h12-----------------|------------------|---------------------|
A|----------------------------|------------------|---------------------|
E|----------------------------|------------------|---------------------|

e|--12h13p12p10-12p10----10--------------------------|
B|--------------------13----12h13p12p10-12p10--------|
G|--------------------------------------------12-10--|
D|---------------------------------------------------|
A|---------------------------------------------------|
E|---------------------------------------------------|

e|----------------------------|------------------|------------10-13-12-|
B|----------------------------|------------------|---------10----------|
G|--9/--------9/12-9h12p9--/7-|--10--9h10p9p7-9--|--7-9-10-------------|
D|-------9h12-----------------|------------------|---------------------|
A|----------------------------|------------------|---------------------|
E|----------------------------|------------------|---------------------|

[Chorus 2]
(*Use Whammy*)
e|----------------|--------------------------|---------------|----------|
B|----------------|--------------------------|---------------|----------|
G|--9-10-7~--7-5--|-9-10-12~--10h12p10p9-10--|--7-9-5~--5-4--|-7-9-10~--|
D|----------------|--------------------------|---------------|----------|
A|----------------|--------------------------|---------------|----------|
E|----------------|--------------------------|---------------|----------|

e|----------------|--------------------------|---------------|------------|
B|----------------|--------------------------|---------------|------------|
G|--9-10-7~--7-5--|-9-10-12~--10h12p10p9-10--|--7-9-5~--5-4--|-7-9-10~--9-|
D|----------------|--------------------------|---------------|------------|
A|----------------|--------------------------|---------------|------------|
E|----------------|--------------------------|---------------|------------|

e|------------|------------------|
B|------------|------------------|
G|--9-10-x-/7-|--5p4-5-----------|
D|------------|---------7-7p6h7--|
A|------------|------------------|
E|------------|------------------|

[Cool Jason Run]
e|-----------------------------------------------------------------------10-12-13-15-|
B|---------------------------------------------10---------------10-12-13-------------|
G|---------------------9---------------9-10-12----12-10-9-10-12----------------------|
D|-------------9-10-12---12-10-9-10-12-----------------------------------------------|
A|-----8-10-12-----------------------------------------------------------------------|
E|--12-------------------------------------------------------------------------------|

                                              *Use Whammy Every Note*
e|-----------12-13-15-17-|-----------13-15-17-|-19-17-15-13-17-15-20-15-22-15~~--|
B|--12-13-15-------------|--13-15-17----------|----------------------------------|
G|-----------------------|--------------------|----------------------------------|
D|-----------------------|--------------------|----------------------------------|
A|-----------------------|--------------------|----------------------------------|
E|-----------------------|--------------------|----------------------------------|

[Interlude]
e|--------------17-21----17----------|--------------17-21----17----------|
B|-----17-21-19-------21----21-19-17-|-----17-21-19-------21----21-19-17-|
G|--18-------------------------------|--18-------------------------------|
D|-----------------------------------|-----------------------------------|
A|-----------------------------------|-----------------------------------|
E|-----------------------------------|-----------------------------------|

e|--------------16-20----16----------|--------------16-20----16----------|
B|-----16-20-18-------20----20-18-16-|-----16-20-18-------20----20-18-16-|
G|--17-------------------------------|--17-------------------------------|
D|-----------------------------------|-----------------------------------|
A|-----------------------------------|-----------------------------------|
E|-----------------------------------|-----------------------------------|

e|--------------15-19----15----------|--------------15-19----15----------|
B|-----15-19-17-------19----19-17-15-|-----15-19-17-------19----19-17-15-|
G|--16-------------------------------|--16-------------------------------|
D|-----------------------------------|-----------------------------------|
A|-----------------------------------|-----------------------------------|
E|-----------------------------------|-----------------------------------|

[Jason Solo]
e|--17-13----15-18-15----13-17-13----12-15-12----|-13-17-13----15-18-15----13-17-13----12-15-12-----|
B|--------15----------17----------15----------14-|----------15----------17----------15----------14--|
G|-----------------------------------------------|--------------------------------------------------|
D|-----------------------------------------------|--------------------------------------------------|
A|-----------------------------------------------|--------------------------------------------------|
E|-----------------------------------------------|--------------------------------------------------|

e|-13-17-13----15-18-15----17-20-17----15-18-15----13-17-13----12-15-12----13-17-13----12-15-12-----|
B|----------14----------17----------18----------17----------15----------14----------15----------14--|
G|--------------------------------------------------------------------------------------------------| (x2)
D|--------------------------------------------------------------------------------------------------|
A|--------------------------------------------------------------------------------------------------|
E|--------------------------------------------------------------------------------------------------|
  
e|--17p13----------13-17p13-------------|-------------------------------|
B|--------15----15----------15----------|-------------------------------|
G|-----------14----------------14-------|----------------------11-------|
D|--------------------------------15----|----10---10---10---10----10----|
A|-----------------------------------17-|--9----9----9----9----------9--|
E|--------------------------------------|-------------------------------|

[Interlude 2]
e|--------------17-21----17----------|--------------17-21----17----------|
B|-----17-21-19-------21----21-19-17-|-----17-21-19-------21----21-19-17-|
G|--18-------------------------------|--18-------------------------------|
D|-----------------------------------|-----------------------------------|
A|-----------------------------------|-----------------------------------|
E|-----------------------------------|-----------------------------------|

e|--------------16-20----16----------|--------------16-20----16----------|
B|-----16-20-18-------20----20-18-16-|-----16-20-18-------20----20-18-16-|
G|--17-------------------------------|--17-------------------------------|
D|-----------------------------------|-----------------------------------|
A|-----------------------------------|-----------------------------------|
E|-----------------------------------|-----------------------------------|

e|--------------15-19----15----------|--------------15-19----15----------|
B|-----15-19-17-------19----19-17-15-|-----15-19-17-------19----19-17-15-|
G|--16-------------------------------|--16-------------------------------|
D|-----------------------------------|-----------------------------------|
A|-----------------------------------|-----------------------------------|
E|-----------------------------------|-----------------------------------|

[Marty Solo]
e|--------17---------------15----------18----------|--17---------------15----------18-----------|
B|--14h17----17p14----14h7----17p14h17----17p14h17-|-----17p14----14h7----17h14h17----17p14h17--|
G|-----------------15------------------------------|-----------15-------------------------------|
D|-------------------------------------------------|--------------------------------------------|
A|-------------------------------------------------|--------------------------------------------|
E|-------------------------------------------------|--------------------------------------------|

e|--17---------------15----------18----------|
B|-----17p14----14h7----17h14h17----17p14h17-|
G|-----------15------------------------------|
D|-------------------------------------------|
A|-------------------------------------------|
E|-------------------------------------------|

e|---17---------------15----------------------------|-------------------------------|
B|------17p14----14h7----17p14----------14----------|--11---------10--------8-------|
G|------------15---------------15p14h15----15p14-12-|-----12p10/9----10p9/7---9p7/6-|
D|--------------------------------------------------|-------------------------------|
A|--------------------------------------------------|-------------------------------|
E|--------------------------------------------------|-------------------------------|

e|----------------------|-------------------------|
B|----------------------|-------------------------|
G|----------------------|--7b9--*7b9-*7b9-*7b9~~--|
D|--5h7-7h8p7p5---------|-------------------------|
A|--------------7-5-5h7-|-------------------------|
E|----------------------|-------------------------|

[Jason Solo 2]
e|-------------------|----------------------------------|-------12-12-13-12-10----10-12--|
B|-------------------|----------------------------------|----------------------13--------|
G|--12~--10h12p10-9--|-9h10-10b12-10b-10b-10b12r10-9----|--------------------------------|
D|-------------------|-------------------------------12~|--12-12-------------------------|
A|-------------------|----------------------------------|--------------------------------|
E|-------------------|----------------------------------|--------------------------------|

e|-13-12-10----------15-13-12----------17-15-13----------|-19-17-15----------20-19-17----------22b24~~-|
B|----------13-12-10----------15-13-12----------17-15-13-|----------18-17-15----------20-18-17---------|
G|-------------------------------------------------------|---------------------------------------------|
D|-------------------------------------------------------|---------------------------------------------|
A|-------------------------------------------------------|---------------------------------------------|
E|-------------------------------------------------------|---------------------------------------------|

e|--------17----------12h17p12--------------------------|
B|--14h17----17p14h17----------13h17--------------------|
G|-----------------------------------14h17--------------|
D|-----------------------------------------14h19----14--|
A|-----------------------------------------------15-----|
E|------------------------------------------------------|

[New Section]
e|------------12------------------12------------------12----------|
B|---------12------------------12------------------12-------------|
G|-9h11h12-------12p11p9h11h12-------12p11p9h11h12-------12p11p9--|
D|----------------------------------------------------------------|
A|----------------------------------------------------------------|
E|----------------------------------------------------------------|

e|----------10----------------10----------------10--------|
B|-------10----------------10----------------10-----------|
G|-7h911-------11p9p7h9h11-------11p9p7h9h11-------11p9p7-|
D|--------------------------------------------------------|
A|--------------------------------------------------------|
E|--------------------------------------------------------|

e|------------12------------------12------------------12----------|
B|---------12------------------12------------------12-------------|
G|-9h11h12-------12p11p9h11h12-------12p11p9h11h12-------12p11p9--|
D|----------------------------------------------------------------|
A|----------------------------------------------------------------|
E|----------------------------------------------------------------|

e|----------10----------------10----------------10------------|
B|-------10----------------10----------------10---------------|
G|-7h911-------11p9p7h9h11-------11p9p7h9h11-------11p9p7h9h7-|
D|------------------------------------------------------------|
A|------------------------------------------------------------|
E|------------------------------------------------------------|

[New Section 2]
e|-------------------------------------------------------------------|
B|--12-8---8-12-8-12-8---8-12-8-12-8---8-13-8---8-11-8---8-11-8---8--|
G|-------9-------------9-------------9--------9--------9--------9----|  (x3)
D|-------------------------------------------------------------------|
A|-------------------------------------------------------------------|
E|-------------------------------------------------------------------|
 
e|------------------------------------------------|
B|--12-8---8-12-8-12-8---8-12-8-12-8---8-15b17~~--|
G|-------9-------------9-------------9------------|
D|------------------------------------------------|
A|------------------------------------------------|
E|------------------------------------------------|

[Blues Intro]
e|--------------------------------|--------------------|
B|--15b17--15-12-14b15r14---------|--------------------|
G|---------------14b15r14--12-----|--7b9--5------------|
D|----------------------------14--|---------7-5--------|
A|--------------------------------|-------------7-6-5--|
E|--------------------------------|--------------------|

[Solo 1]
e|-----------------------|---------------------------|-----------------------------------13-17p13-----------|
B|-----------------------|-----8b--------------------|--------------13-18p13----------13----------13--------|
G|------------------7-8--|--9------9-8-7----6br6-----|-----6-----14----------14----14----------------14-----|
D|------5b-------9b------|---------------10-------7--|--5b-----15---------------15----------------------15--|
A|--7-------7------------|---------------------------|------------------------------------------------------|
E|-----------------------|---------------------------|------------------------------------------------------|

e|--------------12----------|----12-15b17r15-12--------------------------------------|
B|-----------13----15b17r15-|-12----------------15-12--------------------------------|
G|--14-12-13----------------|-------------------------15-14-15-14-12----14----12-----|
D|--------------------------|----------------------------------------14----14----14--|
A|--------------------------|--------------------------------------------------------|
E|--------------------------|--------------------------------------------------------|

e|-----------------------------------|--------------------------|---------------------------|
B|-----------------------------------|--------------------------|---------------------------|
G|--12-13----12----------------------|--------------------------|---------------------------|
D|--------14----14-12----12----------|--------------------------|-------------------------9-|
A|--------------------14----14-13-12-|--10b--12--10b------------|-10b-----12b13-10--11-12---|
E|-----------------------------------|---------------12--10-12--|------12-------------------|

e|---------------14-19p14----------14-19b14-------------|
B|------------15----------15----15----------15----------|
G|--16--14h16----------------16----------------16-------|
D|------------------------------------------------16----|
A|---------------------------------------------------17-|
E|------------------------------------------------------|

e|--------------------16-21p16----------------16-21p16-------------------------------14-18--|
B|-----------------17----------17----------17----------17-------------------------14--------|
G|--------------18----------------18-16h18----------------18-------------------15-----------|
D|-----------18----------------------------------------------18-------------16--------------|
A|--14-16h19----------------------------------------------------19-16----16-----------------|
E|--------------------------------------------------------------------18--------------------|

e|--20b21r20-18--|--19~~---|--22b24r22-22b24b22-22b24-22b24-|
B|---------------|---------|--------------------------------|
G|---------------|---------|--------------------------------|
D|---------------|---------|--------------------------------|
A|---------------|---------|--------------------------------|
E|---------------|---------|--------------------------------|

[Really Cool Marty Lick]
e|--15-12----15-12----------15-----------------------------------------------------------------|
B|--------15-------15-12-15----15-12----15-12----------------------------12--------------------|
G|-----------------------------------15-------15-14-15-14-12-14-12----12----12-13----------12--|
D|-----------------------------------------------------------------14-------------14-12-14-----|
A|---------------------------------------------------------------------------------------------|
E|---------------------------------------------------------------------------------------------|

e|----------------------------------------------------------------|
B|----------------------------------------------------------------|
G|---------------------------------------------------12b----------|
D|--14-12-14-12----12------------------------------------14p12h14-|
A|--------------14----14-13-14-13-12-12--13--14---14--------------|
E|----------------------------------------------------------------|

[Solo 2]
e|-------------------------|------------7-8-9-10----------------------10-------------------------------|
B|--10b12--10b12--8-9------|------10b12----------10b12r10-8---8-10-12----12-10-8---10-8---8-9-7---7----|
G|--------------------9-7--|--7-9---------------------------9--------------------9------9-------9---9--|
D|-------------------------|---------------------------------------------------------------------------|
A|-------------------------|---------------------------------------------------------------------------|
E|-------------------------|---------------------------------------------------------------------------|

e|-------------------|----------------8-13p8---------------------------8-13p8--------------|
B|-------------------|-------------10--------10---------------------10--------10-----------|
G|-------------------|----------10--------------10---------------10--------------10--------|
D|--7-5---5h6-5h6----|-------10--------------------10---------10--------------------10-----|
A|------7---------7--|--8h12--------------------------12-8h12--------------------------12--|
E|-------------------|---------------------------------------------------------------------|

e|------------------10----12-10-15-10----12-10----10----------|-------------------------------------|
B|------------10-12----12-------------12-------12----12-10----|--15b17--15-14b15r14----14b15--------|
G|--8b9--9-12----------------------------------------------12-|---------------------12-------14-12--|
D|------------------------------------------------------------|-------------------------------------|
A|------------------------------------------------------------|-------------------------------------|
E|------------------------------------------------------------|-------------------------------------|

e|--17b19r17b19-17b9r17-17b19---15-17-15-17----------------15-10-12-15-12-10-17-12-15-17-15-12--|
B|------------------------------------------15-17-15-17-15--------------------------------------|
G|----------------------------------------------------------------------------------------------|
D|----------------------------------------------------------------------------------------------|
A|----------------------------------------------------------------------------------------------|
E|----------------------------------------------------------------------------------------------|

e|--12-------15----------------------------------------------------------------------------------|
B|-----15-12----17-15----15-17-15----15----------------15----14-17-14----15-12-------------------|
G|--------------------16----------16----16-14-12-14-16----16----------16-------15-14-12----14-12-|
D|--------------------------------------------------------------------------------------14-------|
A|-----------------------------------------------------------------------------------------------|
E|-----------------------------------------------------------------------------------------------|

e|----------------------------------------------------------------------------|-----------------------------|
B|--------------------------------------------------------17b19--17b19-17b19--|-17b19r17-17-15-16-----------|
G|----------------------------------------------------------------------------|-------------------16-17b19~~|
D|--14-12----------16-14-17-16-14----------14-16-17-16-14---------------------|-----------------------------|
A|--------14-12-14----------------17-16-17------------------------------------|-----------------------------|
E|----------------------------------------------------------------------------|-----------------------------|

e|-----17-------15-------14---------------------|----------------------------------------------------|
B|--------------------------17---14----12-------|------------------------12-15-12----12--------------|
G|--18----18-16----16-14----14---14-14-12-13-12-|---------12----------12----------15----15-14-15-14--|
D|----------------------------------------------|--14--14----14-12-14--------------------------------|
A|----------------------------------------------|----------------------------------------------------|
E|----------------------------------------------|----------------------------------------------------|

e|--------------------------------12-15-12----12-------------|
B|--------------------12-15-12-------------15----15-14-12----|
G|--12-14-12----14-15----------15-------------------------14-|
D|-----------14----------------------------------------------|
A|-----------------------------------------------------------|
E|-----------------------------------------------------------|

e|--------------------------------------------------15b17r15-17b19r17-15-22b24--|
B|-----------------------17-------17-------17-----------------------------------|
G|--15-14-12-14-15-16-16----16-15----15-14----14-13-----------------------------|
D|------------------------------------------------------------------------------|
A|------------------------------------------------------------------------------|
E|------------------------------------------------------------------------------|

[Solo 3]
e|-------------------------------------------------|------------------------------------------------------|
B|------------12-17-15-12-15b17--17-15-12----------|-----------12-17-15-12-15b17-15b17--17-15-12----------|
G|------12-13-----------------------------15-14-12-|-----12-13-----------------------------------15-14-12-|
D|--14---------------------------------------------|-14---------------------------------------------------|
A|-------------------------------------------------|------------------------------------------------------|
E|-------------------------------------------------|------------------------------------------------------|

e|------------12-15b17--12-----------------------------|
B|---------13--------------13--------------------------|
G|--14--14--------------------14-15--14-12-14-15-12----|
D|--------------------------------------------------14-|
A|-----------------------------------------------------|
E|-----------------------------------------------------|

e|-----------------------15-12----------12----------------------------------|----------7----------11---------|
B|-----------12-17-15-12-------15-12-15----15-12----------------------------|--------7---10-7-10b----10-12b14|
G|-----12-13-------------------------------------14-12-14-16-14-12----12-14-|----7-8-------------------------|
D|--14-------------------------------------------------------------14-------|--------------------------------|
A|--------------------------------------------------------------------------|-14-----------------------------|
E|--------------------------------------------------------------------------|--------------------------------|

e|--16-12----------12-16-12-16-12----------12-16-12-|-17-14----------14-17-14-18-15----------15-18-15--17b19-|
B|--------14----14----------------14----14----------|-------15----15----------------16----16-----------------|
G|-----------13----------------------13-------------|----------14----------------------15--------------------|
D|--------------------------------------------------|--------------------------------------------------------|
A|--------------------------------------------------|--------------------------------------------------------|
E|--------------------------------------------------|--------------------------------------------------------|

e|-15--12----15-12----------15----------------15--------------------------|
B|--------15-------15-12-15----15-12-15-12-15----17-12----12-17-15-12-----|
G|-----------------------------------------------------15-------------16--|
D|------------------------------------------------------------------------|
A|------------------------------------------------------------------------|
E|------------------------------------------------------------------------|

e|-----------------------------------------------------------------------------------------|
B|-----------------------------------------------------------------------------------------|
G|--14-------16-12----12-------12-12-------12----------------------------------------------|
D|-----14-12-------14-------12-------14-12----14----------------14-12----------------------|
A|-----------------------14----------------------14-12-14-12-14-------14-12-10-12--10b-----|
E|-------------------------------------------------------------------------------------12--|

[Outro Lick]
e|-15-12----------15--------------------------------------------------------------------------|
B|-------15-12-------15-12-------15-12----------12--------------------------------------------|
G|-------------14----------14-12-------14-12-------14-12-------14-12----------12--------------|
D|-------------------------------------------14----------14-12-------14-12-------14-12--------|
A|-------------------------------------------------------------------------14----------14-12--|
E|--------------------------------------------------------------------------------------------|

e|-----------------------------------------|
B|-----------------------------------------|
G|-----------------------------------------|
D|--14-12----------12----------------------|
A|--------14-12-------14-12----------------|
E|--------------15----------15-12-10b12~~~-|


___________________________
TABLATURE LEGEND
___________________________

Bend:         b
Release Bend: r
Hammer-On:    h
Pull-Off:     p
Slide:        s
Harmonic:     *



************************************

| r   Release
| b   Bend
| /   Slide up
| h   Hammer-on
| p   Pull-off
| ~   Vibrato
| x   Dead note
| *   Natural harmonic
| br  Bend release

************************************

            
            
Suggest correction
Creating personal tab
Creating personal tab
You can edit any tab online and save it as your Personal.

You can edit, replace or remove any tab part or add personal notes – all changes will be seen only by you.

Personal tabs can be accessed anytime from any device, even offline.
Learn more »
Give kudos to tab author, rate the tab!
1 2 3 4 5
comments
print report bad tab
guest
You may want to rate the tab now too:
select rating
Wanna post a correction for this tab? Suggest correction