Oops, an error
Loading. Please wait.

Perpetual Burn Tab

version 1
version 1

Whole song

32,835 views 12 this week
2 commentsread comments
1 2 3 4 5
x 3
add to favorites
×
Save as Personal and add changes to this tab that will be seen only by you. Learn more ›
×
You can save this tab as Personal to edit and correct it or add notes. All changes will be seen only by you. Learn more »
save as personal
new!
launch autoscroll
font size
0
reset
how to read this tab
guitar tuner
backing track
0:00
0:00
Autoscroll
slow
fast
+/-
esc
set tempo
stop
e|--------------------17--------------------17---------------|
B|--17h13----------13-----17h13----------13-----17h13--------|
G|--------14----14--------------14----14--------------14-----|
D|-----------14--------------------14--------------------14--|
A|-----------------------------------------------------------|
E|-----------------------------------------------------------|

e|--------------------17--------------------17---------------|
B|--17h13----------13-----17h13----------13-----17h13--------|
G|--------14----14--------------14----14--------------14-----|
D|-----------15--------------------15--------------------15--|
A|-----------------------------------------------------------|
E|-----------------------------------------------------------|

e|--------------------17--------------------17---------------|
B|--17h13----------13-----17h13----------13-----17h13--------|
G|--------14----14--------------14----14--------------14-----|
D|-----------13--------------------13--------------------13--|
A|-----------------------------------------------------------|
E|-----------------------------------------------------------|

e|--------------------17--------------------17------|
B|--17h13----------13-----17h13----------13---------|
G|--------14----14--------------14----14------------|
D|-----------14--------------------14---------------|
A|--------------------------------------------------|
E|--------------------------------------------------|

e|--------------------17--------------------17----17-16-|
B|--17h13----------13-----17h13----------13-------------|
G|--------14----14--------------14----14----------------|
D|-----------14--------------------14-------------------|
A|------------------------------------------------------|
E|------------------------------------------------------|

e|---17-20-17-16-----------------------------------|
B|---------------17-18-17-15-----------------------|
G|*--------------------------17-16-14-16-13--13-14-|
D|*------------------------------------------------|
A|-------------------------------------------------|
E|-------------------------------------------------|

e|------------------------------------------------12-|
B|---------------------------------------------13----|
G|--16-17-16-14-13--------------------------14-------|
D|-----------------15-14-----------------------------|
A|-----------------------15-14-12-11-----------------|
E|-----------------------------------13-12-----------|

e|--17h12------------8-12h8----------5-8-12h10h8----------------|
B|--------13------10--------10-----5-------------12-10-9--------|
G|-----------14-9--------------9-5------------------------13-14-|
D|--------------------------------------------------------------|
A|--------------------------------------------------------------|
E|--------------------------------------------------------------|

e|--------------------------------------------|
B|--------------------------------------------|
G|--16-17-16-14-13----------------------------|
D|-----------------15-14----------------------|
A|-----------------------15-14-12-11----12----|
E|-----------------------------------12-------|

e|--------------------8-13h8----------8-13h8-------------|
B|-----------------10--------10----10--------10----------|
G|--------------10--------------10--------------10-------|
D|-----------10------------------------------------10----|
A|------8-12------------------------------------------12-|
E|--5h8--------------------------------------------------|

e|------------------8-17h12-----------------------8-12-|
B|---------------10---------13-----------------10------|
G|-------------9---------------14-9----------9---------|
D|--------7-10----------------------10----10-----------|
A|------7------------------------------12--------------|
E|--5h8------------------------------------------------|

e|---------------------------------------------------|
B|--------------------10-----------------------------|
G|---------------8-11----11h8----8h11-11h8---------8-|
D|----------7-10--------------10-----------10-7h10---|
A|------6-9------------------------------------------|
E|--5h8----------------------------------------------|

e|----------4-7h4--8h5---5---------|----------4-7h4--8h5--------------|
B|--------5------------6-----6-----|--------5------------6------------|
G|------4------------------5-----5-|------4----------------5----------|
D|----6------------------------7---|----6--------------------7--------|
A|--7------------------------------|--7------------------------8-6----|
E|---------------------------------|----------------------------------|

e|------------3-8-3-7h4-------------|
B|----------5-----------5-----------|
G|--------5---------------4---------|
D|------5-------------------6-------|
A|--3-7-----------------------7-5-7-|
E|----------------------------------|

e|------------3-8-3-7h4-------4-12h8------------|
B|----------5-----------5---5--------10---------|
G|--------5---------------4-------------9-------|
D|------5---------------------------------10----|
A|--3-7--------------------------------------12-|
E|----------------------------------------------|

e|---------------------------------8----0-|
B|-------------------------13--------10---|
G|----------------------------------------|
D|------10-----7---7/10-10----10/7--------|
A|--0-7----0-7---0------------------------|
E|----------------------------------------|

e|--12h13h12-10----------------------------------------------17-16--|
B|--------------13-12-10-9------------------------------------------|
G|-------------------------12-10-9-7-------------------------------*|
D|-----------------------------------10-9-7-6----------------------*|
A|--------------------------------------------8-7-5-----------------|
E|--------------------------------------------------8-7-5-4---------|

e|------------------------------------------------|
B|------------------------------------------------|
G|--------11-------14-------11-------14-------11--|
D|-----12-------12-------12-------12-------12-----|
A|--12-------12-------12-------12-------12--------|
E|------------------------------------------------|

e|--------------------------10-13/16h13----------------------|
B|-----------------------12-------------15-------------------|
G|-----------------10h13-------------------16h13----------13-|
D|------------9-12-------------------------------15----15----|
A|-------8-11---------------------------------------17-------|
E|--7-10-----------------------------------------------------|

e|--------9-14-17h14------------------------------|
B|-----10------------14---------------------------|
G|--11------------------14-12---------------------|
D|----------------------------14-11---------------|
A|----------------------------------12-11------11-|
E|----------------------------------------12-9----|

e|----------------------9-|
B|-------------------10---|
G|----------11----11------|
D|-------11----11---------|
A|--9-12------------------|
E|------------------------|

e|--14h9----------9-14h10----------10-14h9----------9-14h9----------9-|
B|-------10----10---------12----12---------10----10--------10----10---|
G|----------11---------------11---------------11--------------11------|
D|--------------------------------------------------------------------|
A|--------------------------------------------------------------------|
E|--------------------------------------------------------------------|

e|--14h9----------9-14h10----------10-14h9----------9-14--16--|
B|-------10----10---------12----12---------10----10-----------|
G|----------11---------------11---------------11--------------|
D|------------------------------------------------------------|
A|------------------------------------------------------------|
E|------------------------------------------------------------|

e|--17h12----------12-17h13----------13-17h12----------12-17h12----------|
B|--------13----13----------15----15----------13----13----------13----13-|
G|-----------14----------------14----------------14----------------14----|
D|-----------------------------------------------------------------------|
A|-----------------------------------------------------------------------|
E|-----------------------------------------------------------------------|

e|--17h12----------12-17h13----------13-17h12----------12-17--19--|
B|--------13----13----------15----15----------13----13------------|
G|-----------14----------------14----------------14---------------|
D|----------------------------------------------------------------|
A|----------------------------------------------------------------|
E|----------------------------------------------------------------|

e|--20h17----------17-15h12----------12-13h10----------10-15h12----------|
B|--------17----17----------12----12----------10----10----------13----13-|
G|-----------17----------------12----------------10----------------12----|
D|-----------------------------------------------------------------------|
A|-----------------------------------------------------------------------|
E|-----------------------------------------------------------------------|

e|--14h9----------9-15h12----------12-14h9--------14h9--------|
B|-------10----10---------13----13---------10----------10-----|
G|----------11---------------12---------------11----------11--|
D|------------------------------------------------------------|
A|------------------------------------------------------------|
E|------------------------------------------------------------|

e|--------------------19--------------------19---------------|
B|--19h15----------15-----19h15----------15-----19h15--------|
G|--------16----16--------------16----16--------------16-----|
D|-----------16--------------------16--------------------16--|
A|-----------------------------------------------------------|
E|-----------------------------------------------------------|

e|--------------------19--------------------19---------------|
B|--19h15----------15-----19h15----------15-----19h15--------|
G|--------16----16--------------16----16--------------16-----|
D|-----------17--------------------17--------------------17--|
A|-----------------------------------------------------------|
E|-----------------------------------------------------------|

e|------------5-14h9----------9-17h14----------14-------------------|
B|----------7--------10----10---------14----14----17-15-14----------|
G|--------6-------------11---------------14----------------16-14-13-|
D|------7-----------------------------------------------------------|
A|--5h9-------------------------------------------------------------|
E|------------------------------------------------------------------|

e|--------14-19h14-------------------------10-14h10----------10-15h14h12-|
B|-----15----------15-------------------12----------12----12-------------|
G|--16----------------16-11----------11----------------11----------------|
D|--------------------------12----12-------------------------------------|
A|-----------------------------14----------------------------------------|
E|-----------------------------------------------------------------------|

e|-----------10-17h14----------14-21h17----------17-17h14----------14-|
B|--------12----------14----14----------19----19----------14----14----|
G|--11h14----------------14----------------18----------------14-------|
D|--------------------------------------------------------------------|
A|--------------------------------------------------------------------|
E|--------------------------------------------------------------------|

e|--22h17-------------------------14-19-17h14----------------------------|
B|--------19-------------------15-------------17-15-14-------15-17-18-17-|
G|-----------19-14----------14-------------------------16-14-------------|
D|-----------------16----16----------------------------------------------|
A|--------------------17-------------------------------------------------|
E|-----------------------------------------------------------------------|

e|--16h14h12-----------------------------------------------------|
B|-----------16-14-13--------------------------------------------|
G|--------------------16-14-13-11--------------------------------|
D|--------------------------------14-13-11-10--------------------|
A|--------------------------------------------12-11-9-8----------|
E|------------------------------------------------------10-9--5--|

e|--9h5-------5-12h9---------9-17h12----------------------------12-|
B|------5---5--------10---10---------14----------------------14----|
G|--------6-------------9---------------14----------------14-------|
D|-----------------------------------------14----------14----------|
A|--------------------------------------------16-12-16-------------|
E|-----------------------------------------------------------------|

e|--16h12----------12-21h16----------------------------16-21h16--------|
B|--------12----12----------18----------------------18----------18-----|
G|-----------13----------------18----------------18----------------18--|
D|--------------------------------18----------18-----------------------|
A|-----------------------------------20-16h20--------------------------|
E|---------------------------------------------------------------------|

e|-----------------------------------------------------------------------|
B|--19-14h10-19-14h10-19-14h10-21-15h12-21-15h12-21-15h12-19-14h10-19-14-|
G|-----------------------------------------------------------------------|
D|-----------------------------------------------------------------------|
A|-----------------------------------------------------------------------|
E|-----------------------------------------------------------------------|

e|-----------------------------------------------------------------------|
B|--15-10h7-15-10h7-15-10h7-12-7h5-12-7h5-12-7h5-14-10h7-14-10h7-14-10h7-|
G|-----------------------------------------------------------------------|
D|-----------------------------------------------------------------------|
A|-----------------------------------------------------------------------|
E|-----------------------------------------------------------------------|

e|-----------------------------------------------------------------------|
B|--14-10h7-14-10h7-14-10h7-13-10h7-13-10h7-13-10h7-14-9h6-14-9h6-14-9h6-|
G|-----------------------------------------------------------------------|
D|-----------------------------------------------------------------------|
A|-----------------------------------------------------------------------|
E|-----------------------------------------------------------------------|

e|-----------------------------------------------------------------------|
B|--12-7h5-12-7h5-12-7h5-12-7h4-12-7h4-12-7h4-12-7h4-12-7h4-12-7h4-11-8--|
G|-----------------------------------------------------------------------|
D|-----------------------------------------------------------------------|
A|-----------------------------------------------------------------------|
E|-----------------------------------------------------------------------|

e|-----------------------------------------------------------------------|
B|--11-8h4-11-8h4-12-7h4-11-8h4-11-8h4-11-8h4-11-8h4-11-8h4-12-7h4-11-8--|
G|-----------------------------------------------------------------------|
D|-----------------------------------------------------------------------|
A|-----------------------------------------------------------------------|
E|-----------------------------------------------------------------------|

e|-----------------------16----------|
B|--11-8h4-11-8h4-12-7h4-------16/---|
G|-----------------------------------|
D|-----------------------------------|
A|-----------------------------------|
E|-----------------------------------|

e|-----------------5--10h-5-----------5--|
B|--------------7------------7-----7-----|
G|-----------7------------------7--------|
D|--------7------------------------------|
A|--5h-9---------------------------------|
E|---------------------------------------|

e|--17h-14--------------------------------------14--|
B|----------15------------------------------15------|
G|--------------14----------------------14----------|
D|------------------16--------------16--------------|
A|----------------------17--14--17------------------|
E|--------------------------------------------------|

e|--12h-9-------------9--17h-12--------------12--|
B|---------10-----10-------------14------14------|
G|-------------9---------------------14----------|
D|-----------------------------------------------|
A|-----------------------------------------------|
E|-----------------------------------------------|

e|--12h-9-------------9--9h-5--------------|
B|---------10-----10-----------5-----------|
G|-------------9------------------6--------|
D|-----------------------------------7-----|
A|--------------------------------------7--|
E|-----------------------------------------|

e|--------------------------------------------|
B|-------------------7h-12h-7-------------12--|
G|------------------------------------11------|
D|------------9h-12------------12--9----------|
A|---------9----------------------------------|
E|--7--10-------------------------------------|

e|--14h-10--------------10--15h14h12/10-14h12h10/9-|
B|----------12------12-----------------------------|
G|--------------11---------------------------------|
D|-------------------------------------------------|
A|-------------------------------------------------|
E|-------------------------------------------------|

e|--------------10-------------------10-14h-12h-10--|
B|--12-10-12-14-----14--12--10-12-14----------------|
G|--------------------------------------------------|
D|--------------------------------------------------|
A|--------------------------------------------------|
E|--------------------------------------------------|

e|--------12-14-15h-14h-12-----12h14h15h17h15h14h17-|
B|--14-15-------------------15----------------------|
G|--------------------------------------------------|
D|--------------------------------------------------|
A|--------------------------------------------------|
E|--------------------------------------------------|

e|--19h-15--------------15--15h-12--------------12--|
B|----------17------17--------------12------12------|
G|--------------16----------------------12----------|
D|--------------------------------------------------|
A|--------------------------------------------------|
E|--------------------------------------------------|

e|--12h-7------------------------------7--|
B|---------8---------------------7h-8-----|
G|------------9---------------9-----------|
D|---------------9---------9--------------|
A|------------------10--7-----------------|
E|----------------------------------------|

e|-----------------------10h-7-----------7--|
B|--12h-7-------------7---------7-----7-----|
G|---------------------------------7--------|
D|---------12--9h-12------------------------|
A|------------------------------------------|
E|------------------------------------------|

e|--14h-10--------------10--19h-14--------------14--|
B|----------12------12--------------15------15------|
G|--------------11----------------------16----------|
D|--------------------------------------------------|
A|--------------------------------------------------|
E|--------------------------------------------------|

e|--18h-14------14------14--9h14h9------------9--|
B|---------------------------------11-----11-----|
G|----------18------18----------------11---------|
D|-----------------------------------------------|
A|-----------------------------------------------|
E|-----------------------------------------------|

e|--6h9h6---------------------6h7h9/-|
B|--------7----------------7---------|
G|----------6-----------6------------|
D|-------------8-----8---------------|
A|----------------9------------------|
E|-----------------------------------|

e|-----------10-12-14h12h10-------------14-15-17h15h14----|
B|--11-12-14----------------14-12-15-17----------------17-|
G|--------------------------------------------------------|
D|--------------------------------------------------------|
A|--------------------------------------------------------|
E|--------------------------------------------------------|

e|-----------15-17-19h17h15-------------17-19-21h19h17/-|
B|--15-17-19----------------19-17-19-21-----------------|
G|------------------------------------------------------|
D|------------------------------------------------------|
A|------------------------------------------------------|
E|------------------------------------------------------|

e|--------------------------------------|
B|---------------------------------9-11-|
G|*--------------------8----8-9-11------|
D|*--6--6--6--6--6--6--6----------------|
A|--------------------------------------|
E|--------------------------------------|

e|-----9-12h11h9---------------------------|
B|--12-------------------------------------|
G|---------------------11--9--8--6--------*|
D|---------------9-8-6--------------9--8--*|
A|-----------------------------------------|
E|-----------------------------------------|

e|-------------------------------------|
B|--------------------------------8-10-|
G|--------------------7----7-8-10------|
D|--5--5--5--5--5--5--5----------------|
A|-------------------------------------|
E|-------------------------------------|

e|-----8-11h10h8--------------------------|
B|--11------------------------------------|
G|---------------------10--8--7--5--------|
D|---------------8-7-5--------------8--7--|
A|----------------------------------------|
E|----------------------------------------|

e|-------------------------------------|
B|--------------------------------8-10-|
G|--------------------7----7-8-10------|
D|--5--5--5--5--5--5--5----------------|
A|-------------------------------------|
E|-------------------------------------|

e|-----8-11h10h8--------------------------|
B|--11------------------------------------|
G|---------------------10--8--7--5--------|
D|---------------8-7-5--------------8--7--|
A|----------------------------------------|
E|----------------------------------------|

e|--------------------------------------|
B|---------------------------------9-11-|
G|*--------------------8----8-9-11------|
D|*--6--6--6--6--6--6--6----------------|
A|--------------------------------------|
E|--------------------------------------|

e|-----9-12h11h9---------------------------|
B|--12-------------------------------------|
G|---------------------11--9--8--6--------*|
D|---------------9-8-6--------------9--8--*|
A|-----------------------------------------|
E|-----------------------------------------|

e|--------------------------------------|
B|---------------------------------8-10-|
G|*--------------------7----7-8-10------|
D|*--5--5--5--5--5--5--5----------------|
A|--------------------------------------|
E|--------------------------------------|

e|-----8-11h10h8---------------------------|
B|--11-------------------------------------|
G|---------------------10--8--7--5--------*|
D|---------------8-7-5--------------8--7--*|
A|-----------------------------------------|
E|-----------------------------------------|

e|---------------11-16-14-12-11-----------------|
B|------------12----------------12-11-----------|
G|-------8-13-------------------------13-12-9-8-|
D|-----9----------------------------------------|
A|--11------------------------------------------|
E|----------------------------------------------|

e|----------------------------------------|
B|--8-9-11-12-12--11-12-----11--12--14----|
G|----------------------13----------------|
D|----------------------------------------|
A|----------------------------------------|
E|----------------------------------------|

e|-----------11-12h11h12h11----11----------12-14-16-18----|
B|--11-12-14----------------14----12-14-16----------------|
G|--------------------------------------------------------|
D|--------------------------------------------------------|
A|--------------------------------------------------------|
E|--------------------------------------------------------|

e|--16h18h16h14----------------------------------------------------------|
B|--------------17-16-14-12-------------------12h11/9-11h9/7-9h7/5-7h5/4-|
G|--------------------------15-13-12-------------------------------------|
D|-----------------------------------15-14-12----------------------------|
A|-----------------------------------------------------------------------|
E|-----------------------------------------------------------------------|

e|------------------------------------------------------|
B|--5h4---5h4-------4h5h7h5-4h5h4---5h4-----------------|
G|------6-----6-4-6---------------6-----6-4h6h4-3h4h3---|
D|----------------------------------------------------5-|
A|------------------------------------------------------|
E|------------------------------------------------------|

e|------------7---11-7h11h7---7----------|
B|--------9-----9-----------9---9--------|
G|----8-----8---------------------8-13h8-|
D|--6---9--------------------------------|
A|---------------------------------------|
E|---------------------------------------|

e|----------------------------------|
B|--9-8-7-----7---------------------|
G|--------9-8---9-8-7-----7---------|
D|--------------------9-8---9-8-6-9-|
A|----------------------------------|
E|----------------------------------|

e|--------5-9-12h9----14------12---------12-|
B|-----------------10----14-9----14-9-14----|
G|----6-9-----------------------------------|
D|--8---------------------------------------|
A|------------------------------------------|
E|------------------------------------------|

e|--7h9h7-----------7h9h7-7h9h7-----------7h9h7-|
B|--------9-7---7-9-------------9-7---7-9-------|
G|------------9---------------------9-----------|
D|----------------------------------------------|
A|----------------------------------------------|
E|----------------------------------------------|

e|--17h20h17h15----------------15-17-20-17h20h17h15----------------15-17-|
B|--------------17-15----15-17----------------------17-15----15-17-------|
G|--------------------17----------------------------------17-------------|
D|-----------------------------------------------------------------------|
A|-----------------------------------------------------------------------|
E|-----------------------------------------------------------------------|

e|--19h17h15h17h15/13-17h15h13h15h13/12-15h13h12h13h12/10-13h12h10h12h10-|
B|-----------------------------------------------------------------------|
G|-----------------------------------------------------------------------|
D|-----------------------------------------------------------------------|
A|-----------------------------------------------------------------------|
E|-----------------------------------------------------------------------|

e|-----------------------------------------------------------------------|
B|--13-11-10-10h13h11h10-------------------------------------------------|
G|-----------------------9h10h9----------12-10-9-10h9--------------------|
D|------------------------------12-11-10--------------12-10-9-7----------|
A|--------------------------------------------------------------10-8-7-5-|
E|-----------------------------------------------------------------------|

e|----8h13h8/16-13----------------------13h17h13/20-17----------|
B|-----------------13----------------13----------------18-------|
G|--------------------14----------14----------------------17/14-|
D|-----------------------15-12-15-------------------------------|
A|--------------------------------------------------------------|
E|--------------------------------------------------------------|

e|-----------20h16-------------------13/9h13h9------------------8h12h8-|
B|--------13----------------------13-------------------------10--------|
G|-----14----------16----------14--------------10---------10-----------|
D|--15----------------10-12-15--------------------11-10-8--------------|
A|---------------------------------------------------------------------|
E|---------------------------------------------------------------------|

e|--12h13h12h10----------------------------8h10h8/15h12----------------2-|
B|--------------13h10-----------------------------------13----------13---|
G|--------------------12-10-9h10h9-------------------------14-10h14------|
D|---------------------------------12-10-7-------------------------------|
A|-----------------------------------------------------------------------|
E|-----------------------------------------------------------------------|

e|--------15/12-15-12-------12/8h12h8-----12h13h12h10--------------------|
B|-----17----------------13-----------8---------------13h10--------------|
G|--17----------------12----------------9-------------------12-10-9h10h9-|
D|-----------------------------------------------------------------------|
A|-----------------------------------------------------------------------|
E|-----------------------------------------------------------------------|

e|-----------------------------------------------------------12-10----|
B|-----------------------------------------------------10-12-------12-|
G|-----------------------------9-10-12-10-9----9-10-12----------------|
D|-----9-10-12-10-9----9-10-12--------------12------------------------|
A|--12--------------12------------------------------------------------|
E|--------------------------------------------------------------------|

e|--------10-17/12----12----|
B|-----12----------15-------|
G|--14----------------------|
D|--------------------------|
A|--------------------------|
E|--------------------------|


************************************

| h  Hammer-on
| *  Natural harmonic
| /  Slide up

************************************
Suggest correction
Give kudos to tab author, rate the tab!
1 2 3 4 5
comments
print report bad tab
2 comments total.
0 reply
Desimodontidae 10 Nov 04, 2008 01:43 PM

this is wrong, the intro is on his website

0 reply
IbanezMan1423 10 Sep 08, 2013 11:35 AM

I'm not sure about that. The video of Jeff Loomis playing it says otherwise.

guest
Wanna post a correction for this tab? Suggest correction