Oops, an error
Loading. Please wait.

Rain Tab

7,269 views 15 this week
1 commentread comment
1 2 3 4 5
accurate
x 4
add to favorites
launch autoscroll
font size
0
reset
how to read this tab
guitar tuner
Tab Pro tools
  • play this tab
  • loop segment
  • change instrument
  • show fretboard
  • metronome
×
Best way to learn
"Rain"
Autoscroll
slow
fast
+/-
esc
set tempo
stop
Contributor
                           Jason Becker/Perspective
                                   "Rain"


----------19^16----19b~-----------19\--------------19^16---21^17--24^24-24-24-|
-------17----------------------------------------17---------------------------|
------------------------------------------------------------------------------|
---/19---------------------------------------/19------------------------------|
------------------------------------------------------------------------------|
------------------------------------------------------------------------------|

-24\-------------22^22-22-^22~-------------17--------------------------------|
---------------------------------------------17---17-------------------------|
-----------------------------------------------18-----------18b~-------------|
--------------------------------------/19------------------------------------|
-----------------------------------------------------------------------------|
-----------------------------------------------------------------------------|

------------------16---------------------------------------------------------|
---------------------17---17-------------------------------------------------|
-----------------------18--------------16b-----------------------------------|
-------------/18-------------------------------------------------------------|
-----------------------------------------------------------------------------|
-----------------------------------------------------------------------------|


-----------------------------------------------------------------------------|
---12b--rb12--b--rb---12\10--10\9---9^7---5b---\-----------------------------|
------------------------------------------------------/7/9-----/9------/9----|
-----------------------------------------------------------------------------|
-----------------------------------------------------------------------------|
-----------------------------------------------------------------------------|

-----------------------------------------------------------------------------|
-----------------------------------------------------------------------------|
----9/11---9\----------------------------------------------------------------|
----------------4-4-2-1-2-4-1------------------------------------------------|
------------------------------2----------------------------------------------|
--------------------------------2-0-0--------0-\-----------------------------|

-------------------------------------------2---------------------------------|
------------------------------------------2----5-2---------------------------|
---4b---4^4b----^4^2---4~--4^2----4^2--4b---------4b--4-4^2------------------|
---------------------4--------4-2----4---------------------4-2---------------|
--------------------------------------------------------------4---4b-4-4b-4--|
-----------------------------------------------------------------------------|

---------------------------------------------------------------/7^9^7~-------|
-----------------------------------------------------------------------------|
-----------------------/4~-----4^2-----------/6^4^2---/9^6^4-----------------|
-------------------------------------4^2^2----------4--------7---------------|
--9~-----------11------------------------------------------------------------|
-----------------------------------------------------------------------------|

-----7-----12b---\----------12--12^14^12---16~-----17~-----------------------|
-----------------------------------------------------------------------------|
-----------------------------------------------------------------------------|
-----------------------------------------------------------------------------|
-----------------------------------------------------------------------------|
-----------------------------------------------------------------------------|

-----------19^16-----19b~------------19\--------------19^16----21^17--24^24--|
--------17-----------------------------------------17------------------------|
-----------------------------------------------------------------------------|
---/19----------------------------------------/19----------------------------|
-----------------------------------------------------------------------------|
-----------------------------------------------------------------------------|

-----^24^24\---------------22^22^22~--------------21^21^21~-------19^19^19---|
-----------------------------------------------------------------------------|
-----------------------------------------------------------------------------|
-----------------------------------------------------------------------------|
-----------------------------------------------------------------------------|
-----------------------------------------------------------------------------|

----15b----15^15--\12-------9----------5^9----/18--14^12--------12^14--/22---|
-----------------------------10^7--5^7------------------14-12^14-------------|
-----------------------------------------------------------------------------|
-----------------------------------------------------------------------------|
-----------------------------------------------------------------------------|
-----------------------------------------------------------------------------|

--17^14----------14^17---23----23^21~----------------------------------------|
--------17^14^17-----------------------------22------------------------------|
------------------------------------------------21--20^21^20--18\------------|
-----------------------------------------------------------------------------|
-----------------------------------------------------------------------------|
-----------------------------------------------------------------------------|

-----------------------------------------------------------------------------|
-----------------------------------------------------------------------------|
--16^18--/14---^14\-----14^16^14\11-/14-\9---^9--/8-/9--/9--9^6----6\--------|
-----------------------------------------------------------------------------|
-----------------------------------------------------------------------------|
-----------------------------------------------------------------------------|


-----------------------------------------------------------------------------|
-----------------------------------------------------------------------------|
---4^2----0\------0----------------------------------------------------------|
---------------------7-7\4---^4----------------------------------------------|
------------------------------------3/7----6\----2/4----2---^2~--------------|
------------------------------------------------------------------2----2-----|
comments
print report bad tab
1 comment total.
+1 reply
Midnight 260 wrote on April 22 2006, 10:59 pm

This is really good. Thanks

I want to post or [tab]
guest
You may want to rate the tab now too:
select rating
Please do not post tabs as comments. Select "correction" instead!