Oops, an error
Loading. Please wait.

River Of Longing Tab

version 1
version 1

Intro

Interactive

5,839 views 1 this week
2 commentsread comments
1 2 3 4 5
1 last vote to show rating
add to favorites
×
Save as Personal and add changes to this tab that will be seen only by you. Learn more ›
×
You can save this tab as Personal to edit and correct it or add notes. All changes will be seen only by you. Learn more »
save as personal
new!
launch autoscroll
font size
0
reset
how to read this tab
guitar tuner
Autoscroll
slow
fast
+/-
esc
set tempo
stop
Author
Difficulty
This is my first tab i ever made.... listen to the track
 the beginning uses chords like this, ill finish later

e|0--------4---------5--4---|
B|0---0----4---5--7--5--5-5-|
G|1---2----4---6--8--6----4-|
D|2---4----6---7--9--7------|
A|2---0----6---7--9--7------|
E|0---2----4---5--7--5--4-0-|


e|----------------------------------------------------------------------------|
B|---9-12---------------------------------------------------------------------|
G|--9-----13b(14)13(14)13--11--9--14b(16)-13------11b(13)11p9--11b(13)r-9---9-|
D|-9--------------------------------------------------------------------------|
A|----------------------------------------------------------------------------|
E|----------------------------------------------------------------------------|


e|---------------------------------------------------------------------------|
B|10b(12)-----------------------12b(14)-12----------------------------12-----|
G|--------11b(12)11--9--11--13---------------9----9-----13b(14)13--14--------|
D|---------------------------------------------------------------------------|
A|---------------------------------------------------------------------------|
E|---------------------------------------------------------------------------|


e|-------------------------------------------------------------------------|
B|-------------------------------------------------------------------------|
G|13b(14)13-11--9---13b(14)13--11-9-11b(12)--11-9-11--8---9--11--9b(11)9---|
D|-------------------------------------------------------------------------|
A|-------------------------------------------------------------------------|
E|-------------------------------------------------------------------------|


e|------------------------------------------------------------------------|
B|12b(14)-12--------------------------------------------------------------|
G|------------(11)(13)--(14)-(13)-----------------------------------------|
D|------------------------------------------------------------------------|
A|------------------------------------------------------------------------|
E|------------------------------------------------------------------------|
Suggest correction
Give kudos to tab author, rate the tab!
1 2 3 4 5
comments
print report bad tab
2 comments total.
0 reply
sport_irani20 10 Nov 18, 2016 04:02 AM

please full tablature :(

0 reply
bendor.yael 10 Feb 11, 2017 01:10 PM, edited at 06:11 pm

Most of the shapes aren't correct, there is a melody behind these chords and these shapes are not the right ones

guest
You may want to rate the tab now too:
select rating
Wanna post a correction for this tab? Suggest correction