Oops, an error
Loading. Please wait.

Serrana Tab

version 1
version 1

Live

Whole song

Interactive

5,070 views 1 this week
1 commentread comment
1 2 3 4 5
accurate
x 4
add to favorites
launch autoscroll
font size
0
reset
how to read this tab
guitar tuner
Autoscroll
slow
fast
+/-
esc
set tempo
stop
Help us to improve Ultimate-Guitar.com Take our survey!
×
Author
#----------------------------------PLEASE NOTE---------------------------------#
#This file is the author's own work and represents their interpretation of the #
#song. You may only use this file for private study, scholarship, or research. #
#------------------------------------------------------------------------------#

SERRANA (LIVE)
As recorded by Jason Becker

Transcribed by Joe Spiro
        

Music by Jason Becker

Gtr I (E A D G B E) - 'Untitled'

 Major Section
  Q=150
  (D)
 4/4
  Gtr I
   |------6-------|  |------6------|  |------6-------|  |------6-------|
   S  S  S  S  S  S  S  S  S  S  S S  S  S  S  S  S  S  S  S  S  S  S  S
|------------------------------------------------10-14s17p14-------------|
|----------------10-15p10---------------------10-------------15----------|
|-------------11----------11---------------11-------------------14-------|
|----------12----------------12---------12-------------------------16----|
|-------12----------------------12p9-12-------------------------------17-|
|-10h14------------------------------------------------------------------|


   |------6-------|  |------6-------|  |------6-------|  |------6-------|
   S  S  S  S  S  S  S  S  S  S  S  S  S  S  S  S  S  S  S  S  S  S  S  S
|----------------14-17p14----------14-22p17----------------------------17----|
|-------------15----------15----15----------19----------------------19-------|
|----------14----------------14----------------19----------------19----------|
|-------16----------------------------------------19p16----16h19-------------|
|-12h17-------------------------------------------------17-------------------|
|----------------------------------------------------------------------------|


  (G)
   |------6-------|  |------6-------|  |------6-------|  |------6-------|
   S  S  S  S  S  S  S  S  S  S  S  S  S  S  S  S  S  S  S  S  S  S  S  S
|-19p15----------------------------15-22p19----------------------------19-|
|-------15----------------------15----------20----------------------20----|
|----------16----------------16----------------19----------------19-------|
|-------------17----------17----------------------21----------21----------|
|----------------17-14h17----------------------------22-17h22-------------|
|-------------------------------------------------------------------------|


   |------6-------|  |------6-------|  |------6-------|  |------6-------|
   S  S  S  S  S  S  S  S  S  S  S  S  S  S  S  S  S  S  S  S  S  S  S  S
|-22p19----------19-19p15----------15-15p10----------------------------10--|
|-------20----20----------15----15----------12----------------------12-----|
|----------19----------------16----------------12----------------12--------|
|-------------------------------------------------12----------12-----------|
|----------------------------------------------------14-10h14--------------|
|--------------------------------------------------------------------------|


  (A)
   |-----6------|  |------6-------|  |------6-------|  |------6-------|
   S S  S S  S  S  S  S  S  S  S  S  S  S  S  S  S  S  S  S  S  S  S  S
|-12p9---------------------------12-17p12----------------------------12-|
|------10---------------------14----------14----------------------14----|
|---------9----------------14----------------14----------------14-------|
|-----------11----------14----------------------14----------14----------|
|--------------12-12h16----------------------------16-12h16-------------|
|-----------------------------------------------------------------------|


   |------6-------|  |-----6-----| |----6----| |----6----|
   S  S  S  S  S  S  S S  S S  S S S S S S S S S S S S S S
|-17p12----------12-12p9---------9-9p5-------------------5--|
|-------14----14---------10---10-------5---------------5----|
|----------14---------------9------------6-----------6------|
|------------------------------------------7-------7--------|
|--------------------------------------------7-4h7----------|
|-----------------------------------------------------------|


  (D)
   |------6-------| |------6-------|  |------6-------|  |------6-------|
   S  S  S  S  S  S S  S  S  S  S  S  S  S  S  S  S  S  S  S  S  S  S  S
|-14p10---------------------------10-17p14----------------------------14-|
|-------10---------------------10----------15----------------------15----|
|----------11---------------11----------------14----------------14-------|
|-------------12---------12----------------------16----------16----------|
|----------------12-9h12----------------------------17-12h17-------------|
|------------------------------------------------------------------------|


   |------6-------|  |------6-------|  |------6-------|
   S  S  S  S  S  S  S  S  S  S  S  S  S  S  S  S  S  S  e E
|-17p14----------14-18p14----------14-16p14----------14-17----|
|-------15----15----------15----15----------15----15----------|
|----------14----------------14----------------14-------------|
|-------------------------------------------------------------|
|-------------------------------------------------------------|
|-------------------------------------------------------------|


   Minor Section
    (F#m)
     |------6-------|  |------6-------|  |------6-------|  |------6-------|
     S  S  S  S  S  S  S  S  S  S  S  S  S  S  S  S  S  S  S  S  S  S  S  S
||--21p17----------------------------17-21p17----------17-22p17----------17--||-|
||o-------19----------------------19----------19----19----------19----19----o||-|
||-----------18----------------18----------------18----------------18--------||-|
||--------------19----------19-----------------------------------------------||-|
||o----------------21-16h21-------------------------------------------------o||-|
||---------------------------------------------------------------------------||-|


    (Bm)
     |------6-------|  |------6-------|  |------6-------|  |------6-------|
     S  S  S  S  S  S  S  S  S  S  S  S  S  S  S  S  S  S  S  S  S  S  S  S
||--19p14----------------------------14-19p14----------14-21p14----------14-----||
||o-------15----------------------15----------15----15----------15----15-------o||
||-----------16----------------16----------------16----------------16-----------||
||--------------16----------16--------------------------------------------------||
||o----------------17-14h17----------------------------------------------------o||
||------------------------------------------------------------------------------||


  (Em)                                (Cm)
   |------6-------|  |------6-------|  |------6-------|  |------6-------|
   S  S  S  S  S  S  S  S  S  S  S  S  S  S  S  S  S  S  S  S  S  S  S  S
|-24p19----------------------------19-20p15----------------------------15-|
|-------20----------------------20----------16----------------------16----|
|----------21----------------21----------------17----------------17-------|
|-------------21----------21----------------------17----------17----------|
|----------------22-19h22----------------------------18-15h18-------------|
|-------------------------------------------------------------------------|


  (G#m)
   |------6-------|  |------6-------|  |------6-------|  |------6-------|
   S  S  S  S  S  S  S  S  S  S  S  S  S  S  S  S  S  S  S  S  S  S  S  S
|-16p11----------------------------11-16p11----------11-18p11----------11--|
|-------12----------------------12----------12----12----------12----12-----|
|----------13----------------13----------------13----------------13--------|
|-------------13----------13-----------------------------------------------|
|----------------14-11h14--------------------------------------------------|
|--------------------------------------------------------------------------|


  (Eb)
   |------6-------|  |------6-------|  |------6-------|  |------6-------|
   S  S  S  S  S  S  S  S  S  S  S  S  S  S  S  S  S  S  S  S  S  S  S  S
|-15p11----------------------------11-18p15----------------------------15-|
|-------11----------------------11----------16----------------------16----|
|----------12----------------12----------------15----------------15-------|
|-------------13----------13----------------------17----------17----------|
|----------------13-10h13----------------------------18-13h18-------------|
|-------------------------------------------------------------------------|


   |------6-------|  |------6-------|  |------6-------|
   S  S  S  S  S  S  S  S  S  S  S  S  S  S  S  S  S  S  q
|-23p18----------------------------18-23p18------------------|
|-------20----------------------20----------20---------------|
|----------20----------------20----------------20------------|
|-------------20p17----17h20----------------------20p17------|
|-------------------18----------------------------------18---|
|------------------------------------------------------------|


 Diminished Section
  (F°7)
   |------6-------|  |------6-------|  |------6-------|  |------6-------|
   S  S  S  S  S  S  S  S  S  S  S  S  S  S  S  S  S  S  S  S  S  S  S  S
|-------------------16h19p16----16h19-22p19p16----------------16-17-18-19-|
|----------------18----------18----------------18----------18-------------|
|-19p16----16h19----------------------------------19-16h19----------------|
|-------18----------------------------------------------------------------|
|-------------------------------------------------------------------------|
|-------------------------------------------------------------------------|


    (Cm)
     |------6-------|  |------6-------|  |------6-------|  |------6-------|
     S  S  S  S  S  S  S  S  S  S  S  S  S  S  S  S  S  S  S  S  S  S  S  S
||--20p15----------------------------15-20p15----------15-22p15----------15---||
||o-------16----------------------16----------16----16----------16----16-----o||
||-----------17----------------17----------------17----------------17---------||
||--------------17----------17------------------------------------------------||
||o----------------18-15h18--------------------------------------------------o||
||----------------------------------------------------------------------------||


  (C°7)
   |------6-------|  |------6-------|  |------6-------|  |------6-------|
   S  S  S  S  S  S  S  S  S  S  S  S  S  S  S  S  S  S  S  S  S  S  S  S
|-20p17----------------------------17-20p17----------17p14----------------|
|-------19----------------------19----------19-------------16-------19p16-|
|----------20p17----------17h20----------------20p17----------17p14-------|
|----------------19-16h19-------------------------------------------------|
|-------------------------------------------------------------------------|
|-------------------------------------------------------------------------|


   |------6-------|  |------6-------|  |------6-------|  |------6-------|
   S  S  S  S  S  S  S  S  S  S  S  S  S  S  S  S  S  S  S  S  S  S  S  S
|-17p14----------------------------14-17p14--------------------------------|
|-------16----------------------16----------16-------16p13-----------------|
|----------17p14----------14h17----------------17p14-------14-------14-----|
|----------------16-13h16-------------------------------------16p13----16--|
|--------------------------------------------------------------------------|
|--------------------------------------------------------------------------|


  (G)
       |-3-|      |-3-|      |-3-|      |-3-|
   E  +E   S  E  +E   S  E  +E   S  E  +E   S    Q    Q   H
|---------------------------------------------|-----------------*|
|---------------------------------------------|-----/20---------*|
|---------------------------------------------|-----------------*|
|-17-(17)-17h18-(18)-18p17-(17)-17p16-(16)-16-|-17--------------*|
|---------------------------------------------|-----------------*|
|---------------------------------------------|----------15\----*|



Duration Legend
---------------
W - whole; H - half; Q - quarter; E - 8th; S - 16th; T - 32nd; X - 64th; a - acciaccatura
+ - note tied to previous; . - note dotted; .. - note double dotted
Uncapitalized letters represent notes that are staccato (1/2 duration)
Irregular groupings are notated above the duration line
Duration letters will always appear directly above the note/fret number it represents the
duration for.  Duration letters with no fret number below them represent rests.  Multi-
bar rests are notated in the form Wxn, where n is the number of bars to rest for.  Low
melody durations appear below the staff

Tablature Legend
----------------
 h   - hammer-on
 p   - pull-off
 b   - bend
 pb  - pre-bend
 r   - bend release (if no number after the r, then release immediately)
 /\  - slide into or out of (from/to "nowhere")
 s   - legato slide
 S   - shift slide
 - natural harmonic
[n]  - artificial harmonic
n(n) - tapped harmonic
 ~   - vibrato
 tr  - trill
 T   - tap
 TP  - trem. picking
 PM  - palm muting
\n/  - tremolo bar dip; n = amount to dip
 \n  - tremolo bar down
 n/  - tremolo bar up
/n\  - tremolo bar inverted dip
 =   - hold bend; also acts as connecting device for hammers/pulls
 <> - volume swell (louder/softer)
 x   - on rhythm slash represents muted slash
 o   - on rhythm slash represents single note slash

Misc Legend
-----------
 |  - bar
||  - double bar
||o - repeat start
o|| - repeat end
*|  - double bar (ending)
 :  - bar (freetime)
 $  - Segno
 &  - Coda
Tempo markers -  = BPM(8/16=s8/s16), where s8 = swing 8ths, s16 = swing 16ths

Suggest correction
What's this?
You can suggest a correction to this tab. Community and Mods will review your correction and vote to approve or reject it.
comments
print report bad tab
1 comment total.
0 reply
mightmuffin 237 wrote on April 5 2009, 07:59 am

Seems to be alot more acurate than the others.

guest
You may want to rate the tab now too:
select rating
Please do not post tabs as comments. Select "correction" instead!