Oops, an error
Loading. Please wait.

Serrana Tab

version 1
version 1

Whole song

11,884 views 21 this week
no commentswrite comment
1 2 3 4 5
accurate
x 1
add to favorites
launch autoscroll
font size
0
reset
how to read this tab
guitar tuner
Tab Pro tools
  • play this tab
  • loop segment
  • change instrument
  • show fretboard
  • metronome
Autoscroll
slow
fast
+/-
esc
set tempo
stop
Serrana   Jason Becker

This a very hard sweeping piece. It sounds great though.


My Rig:
Squire Telecaster
Marshall 50 watt amp
Morley wah wah

My Favourite Bands:
Primus
Clutch
No Doubt

My Favourite guitar websites:
http://www.tabclawer.com    - good tab site
http://www.nodoubt.com   - no doubt's official site
http://www.guitarandbass.co.uk   - brilliant guitar lesson site


E||--22--------------------------------------------14-17h14------------|
B||---------------15----------------------------15----------15---------|
G||------------14----14----------------------14----------------14------|
D||---------16----------16----------------16----------------------16---|
A||------17----------------17-12----12-17----------------------------1-|
E||------------------------------14------------------------------------|

-----------------14-17h14----------14-22h17----------------------------|
--------------15----------15----15----------19----------------------19-|
-----------14----------------14----------------19----------------19----|
--------16----------------------------------------19-16----16-19-------|
--12-17-------------------------------------------------17-------------|
-----------------------------------------------------------------------|

--19h15----------------------------15-22h19-------------------------19-|
--------15----------------------15----------20-------------------20----|
-----------16----------------16----------------19-------------19-------|
--------------17----------17----------------------21-17-17-21----------|
-----------------17-14-17----------------------------------------------|
-----------------------------------------------------------------------|

--22h19----------19-19h15----------15-15h10----------------------------|
--------20----20----------15----15----------12----------------------12-|
-----------19----------------16----------------12----------------12----|
--------------------------------------------------12----------12-------|
-----------------------------------------------------14-10-14----------|
-----------------------------------------------------------------------|

--12h9-----------------------9-12/17h12----------------------------12-|
-------10-----------------10------------14----------------------14----|
----------9-------------9------------------14----------------14-------|
------------11-------11-----------------------14----------14----------|
---------------12-12-----------------------------16-12-16-------------|
----------------------------------------------------------------------|

--17h12----------12-12h9---------9-9h5---------------------|
--------14----14---------10---10-------5-------------------|
-----------14---------------9------------6---------------6-|
-------------------------------------------7-----------7---|
---------------------------------------------7-4---4-7-----|
-------------------------------------------------5---------|

--14h10---------------------------10/17h14----------------------------|
--------10---------------------10----------15----------------------15-|
-----------11---------------11----------------14----------------14----|
--------------12---------12----------------------16----------16-------|
-----------------12-9-12----------------------------17-12-17----------|
----------------------------------------------------------------------|

--17h14----------14-18h14----------14-16h14----------14-17----|
--------15----15----------15----15----------15----15----------|
-----------14----------------14----------------14-------------|
--------------------------------------------------------------|
--------------------------------------------------------------|
--------------------------------------------------------------|

|---21h17----------------------------17-21h17----------17-22h17-------|
|---------19----------------------19----------19----19----------19----|
|*-----------18----------------18----------------18----------------18-|
|*--------------19----------19----------------------------------------|
|------------------21-16-21-------------------------------------------|
|---------------------------------------------------------------------|

||---19h14----------------------------14-19h14----------14-21h14-------|
||---------15----------------------15----------15----15----------15----|
||*-----------16----------------16----------------16----------------16-|
||*--------------16----------16----------------------------------------|
||------------------17-14-17-------------------------------------------|
||---------------------------------------------------------------------|

--24h19-------------------------------20h15----------------------------|
--------20-------------------------20-------16-------------------------|
-----------21-------------------21-------------17-------------------17-|
--------------21-------------21-------------------17-------------17----|
-----------------22-19----22-------------------------18-15----18-------|
-----------------------19----------------------------------15----------|

--16h11----------------------------11-16h11----------11-18h11----------|
--------12----------------------12----------12----12----------12----12-|
-----------13----------------13----------------13----------------13----|
--------------13----------13-------------------------------------------|
-----------------14-11-14----------------------------------------------|
-----------------------------------------------------------------------|

--15h11----------------------------11-18h15----------------------------|
--------11----------------------11----------16----------------------16-|
-----------12----------------12----------------15----------------15----|
--------------13----------13----------------------17----------17-------|
-----------------13-10-13----------------------------18-13-18----------|
-----------------------------------------------------------------------|

--23h18----------------------------18-23h18-------------------|
--------20----------------------20----------20----------------|
-----------20----------------20----------------20-------------|
--------------20-17----17-20----------------------20-17-------|
--------------------18----------------------------------18----|
--------------------------------------------------------------|

-----------------13-16h13----19h16----22h19----------------------17-18-|
--15h12----12-15----------15-------18-------21----------------21-------|
--------13-------------------------------------22-19----19-22----------|
-----------------------------------------------------21----------------|
-----------------------------------------------------------------------|
-----------------------------------------------------------------------|

||---20h15----------------------------15-20h15----------15-22h15-------|
||---------16----------------------16----------16----16----------16----|
||*-----------17----------------17----------------17----------------17-|
||*--------------17----------17----------------------------------------|
||------------------18-15-18-------------------------------------------|
||---------------------------------------------------------------------|

--20h17----------------------------17-20h17----------17h14----------14-|
--------19----------------------19----------19-------------16----------|
-----------20-17----------17-20----------------20-17----------17-14----|
-----------------19-16-19----------------------------------------------|
-----------------------------------------------------------------------|
-----------------------------------------------------------------------|

--17h14----------------------------14-17h14----------------------------|
--------16----------------------16----------16-------16h13-------------|
-----------17-14----------14-17----------------17-14-------14-------14-|
-----------------16-13-16-------------------------------------16-13----|
-----------------------------------------------------------------------|
-----------------------------------------------------------------------|

--------------------------|--------------------||
--------------------------|--------------------||
--12----13----12----11----|--12----------------||
--------------------------|--------------------||
--------------------------|--------------------||
--------------------------|--------------------||
comments
We did not receive enough feedback on this tab! Please rate:
print report bad tab
1 2 3 4 5
I want to post or [tab]
guest
You may want to rate the tab now too:
select rating
Please do not post tabs as comments. Select "correction" instead!