Oops, an error
Loading. Please wait.

Hallelujah Chords

version 1
version 1

Whole song

48,812 views 57 this week
no commentswrite comment
1 2 3 4 5
excellent!
x 28
add to favorites
launch autoscroll
font size
0
reset
transpose
0
reset
display chords
guitar tuner
Autoscroll
slow
fast
+/-
esc
set tempo
stop
Help us to improve Ultimate-Guitar.com Take our survey!
×
Author
Difficulty
intermediate
    C            Am          C           Am
E|------------------------------------------------------------|
B|--------1------------1-----------1-----------1--------------|
G|------0------------2-----------0-----------2----------------|
D|----2------------2-----------2-----------2------------------|
A|--3-------3-2--0-------0-2-3-------3-2-0--------------------|
E|------------------------------------------------------------|


       F           G            C           G
E|------------------------------------------------------------|
B|-----------1-----------3------------1-----------0-----------|
G|---------2---2-------4---4--------0-----------0-------------|
D|-------3-------3---5-------5----2-----------0---------------|
A|-0-2-3-----------5------------3-------3-2-------------------|
E|------------------------------------------3-----------------|

       C           F     G      Am          F
E|-------------------------------------------------------------|
B|-----------1---------2-----3--------1-----------1------------|
G|---------0---------3-----4--------2---2-------2---2----------|
D|-------2---------4-----5--------2-------2---3-------3--------|
A|-0-2-3-------3-2--------------0-----------3------------------|
E|-------------------------------------------------------------|


   G           Em          Am
E|------------------------------------------------------------|
B|-------0-----------0-----------1-----------1----------------|
G|-----0---0-------0---0-------2---2-------2---2--------------|
D|---0-------0---2-------2---2-------2---2-------2------------|
A|-------------------------0-----------0----------------------|
E|-3-----------0----------------------------------------------|



   F                       Am                      F
E|-------------------------------------------------------------------------|
B|-------1-----------1-----------1-----------1-----------1-----------1-----|
G|-----2---2-------2---2-------2---2-------2---2-------2---2-------2---2---|
D|---3-------3---3-------3---2-------2---2-------2---3-------3---3-------3-|
A|-3-----------3-----------0-----------0-----------3-----------3-----------|
E|-------------------------------------------------------------------------|


   C           G           C
E|--------------------------------------|
B|-------1-----------0-----------1------|
G|-----0-----------0-----------0--------|
D|---2-----------0-----------2----------| 
A|-3-------3-2---------0-2-3------------|
E|-------------3------------------------|

Start from beginning for each verse


-----------------------------------------------------------------------------

intro: 

    C            Am          C           Am
E|--------------------------------------------------------|
B|--------1------------1-----------1-----------1----------|
G|------0------------2-----------0-----------2------------|
D|----2------------2-----------2-----------2--------------|
A|--3-------3-2--0-------0-2-3-------3-2-0----------------|
E|--------------------------------------------------------|


Verse 1:

  C                 Am
I heard there was a secret chord
     C                   Am
that David played and it pleased the lord
    F                G               C        G
but you don't really care for music, do ya
        C                  F           G
Well it goes like this the fourth, the fith
    Am                 F
the minor fall and the major lift
    G            Em            Am
the baffled king composing hallelujah


Chorus:

    F           Am          F           C    G     C
Hallelujah, hallelujah, hallelujah, hallelu-u-u-u-jah


Verse 2:

          C                        Am
Well your faith was strong but you needed proof
    C               Am
you saw her bathing on the roof
    F              G             C           G
her beauty and the moonlight overthrew you
C                   F       G
she tied you to her kitchen chair
    Am                        F
she broke your throne and she cut your hair
    G                  Em           Am
and from your lips she drew the hallelujah


Chorus:

    F           Am          F           C    G     C
Hallelujah, hallelujah, hallelujah, hallelu-u-u-u-jah


Verse 3

C              Am
Baby i've been here before
     C                       Am
i've seen this room and i've walked this floor
  F             G             C        G
I used to live alone before I knew ya
C                          F      G
i've seen your flag on the marble arch
    Am            F
but love is not a victory march
      G              Em        Am
its a cold and its a broken hallelujah


Chorus:

    F           Am          F           C    G     C
Hallelujah, hallelujah, hallelujah, hallelu-u-u-u-jah


Verse 4:

     C                         Am
Well there was a time when you let me know
       C            Am
what's really going on below
    F             G               C       G
but now you never show that to me do ya
    C               F        G
but remember when I moved in you
        Am            F
and the holY dove was moving to
    G                Em           Am
and every breathe we drew was hallelujah


Chorus:

    F           Am          F           C    G     C
Hallelujah, hallelujah, hallelujah, hallelu-u-u-u-jah


Verse 5:

      C               Am
Well, mabey there's a god abouve
    C          Am
but all I ever learned from love
    F                G           C         G
was how to shoot somebody who outdrew you
    C             F       G
its not a cry you hear at night
    Am                 F
its not someBODY who's seen the light
      G              Em         Am
its a cold and its a broken hallelujah


Chorus:

    F           Am          F           C    G     C
Hallelujah, hallelujah, hallelujah, hallelu-u-u-u-jah
Suggest correction
comments
print report bad tab
guest
You may want to rate the tab now too:
select rating
Wanna post a correction for this tab? Suggest correction