Oops, an error
Loading. Please wait.

Somewhere Over The Rainbow Chords

version 1
version 1

Whole song

47,058 views 3 this week
1 commentread comment
1 2 3 4 5
1 last vote to show rating
add to favorites
launch autoscroll
font size
0
reset
transpose
0
reset
display chords
guitar tuner
Autoscroll
slow
fast
+/-
esc
set tempo
stop
Help us to improve Ultimate-Guitar.com Take our survey!
×
Author
Capo
5th fret
-------------------------------------------------------------------------------
                             SOMEWHERE OVER THE RAINBOW - Jason Castro
-------------------------------------------------------------------------------
Tabbed by: k3llycakes
Email: k3llycakes@yahoo.com

Tuning: Standard - Capo on 5th fret.


This is my first tab so sorry it's a bit messy. I couldn't find an good tabs for this 
so I learned it by ear and now I'm sharing! :D


CHORDS: G, D, C, G
e|---3----2----0----3--------------------------------------------------------|
B|---3----3----1----3--------------------------------------------------------|
G|---0----2----0----0--------------------------------------------------------|
D|---0----0----2----0--------------------------------------------------------|
A|---2---------3----2--------------------------------------------------------|
E|---3--------------3--------------------------------------------------------|

Somewhere over the rainbow way up high.

CHORDS: C, G, D, Em, C
e|---0----3----2---------0---------------------------------------------------|
B|---1----3----3----0----1---------------------------------------------------|
G|---0----0----2----0----0---------------------------------------------------|
D|---2----0----0----2----2---------------------------------------------------|
A|---3----2---------2----3---------------------------------------------------|
E|--------3---------0--------------------------------------------------------|

And the dreams that you dream of once in a lullaby.

| /  slide up
| \  slide down
| h  hammer-on
| p  pull-off
| ~  vibrato
| +  harmonic
| x  Mute note

The rest of the song is literally that repeated pattern. It was much easier than I 
:D

Email me with questions? Thanks!
===============================================================================
Suggest correction
Give kudos to tab author, rate the tab!
1 2 3 4 5
comments
print report bad tab
1 comment total.
0 reply
PandasAreFat 10 May 27, 2009 10:37 PM

You did great.

guest
You may want to rate the tab now too:
select rating
Wanna post a correction for this tab? Suggest correction