Oops, an error
Loading. Please wait.

Bestfriend Tab

5,973 views 24 this week
no commentswrite comment
1 2 3 4 5
x 3
add to favorites
launch autoscroll
font size
0
reset
how to read this tab
guitar tuner
Autoscroll
slow
fast
+/-
esc
set tempo
stop
Help us to improve Ultimate-Guitar.com Take our survey!
×
Author
Difficulty
-------------------------------------------------------------------------------
                             Best friend - Jason Chen
-------------------------------------------------------------------------------
Tabbed by: Luis Israel

Tuning: 2nd/3rd Fret - Standard

    C   G        Am    G     F.....F  G
e|--0---3-----0----------------------------|  
B|--1------3-----1--3--0--1--1-----1--0----| 
G|--0------0-----0-----0-----2-----0--0----|   <<< Repeat throughout song
D|---------------------------3-----3-------|
A|--3------------0-------------------------|
E|---------3-----------3--------------3----|


OR

    C   G        Am    G     F.....F  G
e|--0---3-----0--------------------------------|  
B|--1------3-----1--3--0--1--1-----1--0--1--3--| 
G|--0------0-----0-----0-----2-----0--0--------|   <<< Repeat throughout song
D|---------------------------3-----3-----------|
A|--3------------0-----------------------------|
E|---------3-----------3--------------3--------|
Suggest correction
Give kudos to tab author, rate the tab!
1 2 3 4 5
comments
print report bad tab
guest
You may want to rate the tab now too:
select rating
Wanna post a correction for this tab? Suggest correction