Oops, an error
Loading. Please wait.

Black Mass Bass Tab

40 views 1 this week
no commentswrite comment
1 2 3 4 5
3 more votes to show rating
add to favorites
launch autoscroll
font size
0
reset
guitar tuner
Autoscroll
slow
fast
+/-
esc
set tempo
stop
Help us to improve Ultimate-Guitar.com Take our survey!
×
Author
Difficulty
novice
Tabbed by: 6METAL6BASSIST6
E-mail: petergriffinav@gmail.com

Tuning: EADG

G|----------------------------------------------------------------|
D|----------------------------------------------------------------|
A|10--------------------------10--8-------------------------------|
E|------------------------------------------------------------10--|

G|----------------------------------------------------------------|
D|----------------------------------------------------------------|
A|----------------------------8---10--------------------------8---|
E|8---------------------------------------------------------------|

G|----------------------------------------------------------------|
D|----------------------------------------------------------------|
A|10--------------------------10--8-------------------------------|
E|------------------------------------------------------------10--|

G|----------------------------------------------------------------|
D|----------------------------------------------------------------|
A|----------------------------8---10----------------------10------|
E|8-------------------------------------------10------10------10--|

0:19

G|----------------------------------------------------------------|
D|------------12----------------------------/-12------10----------|
A|10------------------10------10--8-----------------------12--10--|
E|------------------------10--------------------------------------|

G|----------------------------------------------------------------|
D|----------------------------------------------------------------|
A|------------10------10------8---10----------------8-10--8-------|
E|8-----------------------10------------------10--------------10--|

G|----------------------------------------------------------------|
D|----------/-12------10------------------------------------------|
A|10----------------------12------------------8---10--12------10--|
E|----------------------------10--8-------------------------------|

G|----------------------------------------------------------------|
D|----------------------------------------------------------------|
A|------------10------10------8---10----------------------10------|
E|8-----------------------10------------------10------10------10--|

0:39

G|----------------------------------------------------------------|
D|----------------10----------------------------------12----------|
A|------------10------10--8-------------------12----------12------|
E|8---------------------------10--10--------------------------10--|

G|----------------------------------------------------------------|
D|----------------------------------------------------------------|
A|10------------------8---10--8---------------10------10---------/|
E|------------10------------------8-----------------------8---10--|

G|----------------------------------------------------------------|
D|--------------------14------------------------------------------|
A|12--------------12------12------------------12------12----------|
E|------------12--------------12--10----------------------10------|

G|----------------------------------------------------------------|
D|------------------13--------------------------------------------|
A|------------13------13------13--10----------------------10------|
E|11----------------------11------------------10------10----------|

1:00

G|----------------------------------------------------------------|
D|----------------------------------------------------------------|
A|10--------------------------10--8-------------------------------|
E|------------------------------------------------------------10--|

G|----------------------------------------------------------------|
D|----------------------------------------------------------------|
A|----------------------------8---10----------------------10--8---|
E|8-------------------------------------------10------10----------|

1:10

G|----------------------------------------------------------------|
D|----------/-12------10------------------------------------------|
A|10----------------------12------8---------/-12------10------8---|
E|----------------------------10----------------------------------|

G|----------------------------------------------------------------|
D|----------------------------------------------------------------|
A|------------10------10------8---10------------------8-------9---|
E|8-----------------------10------------------10------------------|

G|----------------------------------------------------------------|
D|------------------------12--------------------------------------|
A|10------------------10------10--8---------/-12------10------8---|
E|------------10--------------------------------------------------|

G|----------------------------------------------------------------|
D|--------------------------------------------------------12------|
A|------------10------10------8---10------------------10------10-/|
E|8-----------------------10------------------10------------------|

1:31

G|----------------------------------------------------------------|
D|----------------------------------------------------9---10--12--|
A|15--13--12--10--12--10--9---------------9---10--12--------------|
E|----------------------------12--10--12--------------------------|

G|----------------------------------------------------------------|
D|----------------------------------------------------------------|
A|10--8---7-------7-----------------------7---8---10--8---7------/|
E|------------10------10--8---7---8---10----------------------10--|

G|----------------------------------------------------------------|
D|----------------------------------------------------9---10--12--|
A|12--10--9-------9-----------------------9---10--12--------------|
E|------------12------12--10--8---10--12--------------------------|

G|----------------------------------------------------------------|
D|13----------------------13--------------------------------------|
A|--------13----------13------13--10----------------------10------|
E|------------11------------------------------10------10------10--|

1:52

G|------------------------------------------------|
D|----------------12------------------------------|
A|10--12--13--10------13--12--10--13--12--10--13-/|
E|------------------------------------------------|

G|----------------------------------------------------------------|
D|----------------------------------------------------------------|
A|12----/-12----/-12----/-12----/-12--12-/12--12-/12--12-/12--12--|
E|----------------------------------------------------------------|

G|------------------------------------------------|
D|----------------12------------------------------|
A|10--12--13--10------13--12--10--13--12--10--13-/|
E|------------------------------------------------|

G|----------------------------------------------------------------|
D|----------------------------------------------------------------|
A|12--12-/12--12-/12--12-/12--12-/12--12-/12--12-/12--12--12------|
E|------------------------------------------------------------10--|

2:12

G|----------------------------------------------------------------|
D|------------12------12--------------------/-12------10----------|
A|10--------------------------10--8-----------------------12--10--|
E|------------------------10--------------------------------------|

G|----------------------------------------------------------------|
D|----------------------------------------------------------------|
A|------------10------10------8---10----------------------8---9---|
E|8-----------------------10------------------10------10----------|

G|----------------------------------------------------------------|
D|----------/-12------10------------------------------------------|
A|10--------------------------12--------------8---------------10--|
E|--------------------------------8-------------------10--8-------|

G|----------------------------------------------------------------|
D|----------------------------------------------------------------|
A|------------10------10------8---10----------------------8---10--|
E|8-----------------------10------------------10------10----------|

2:31

G|----------------------------------------------------------------|
D|----------------------------------------------------------------|
A|----------------------------10--8-------------------------------|
E|8-----------------------------------------------------------10--|

G|----------------------------------------------------------------|
D|----------------------------------------------------------------|
A|----------------------------8---10--------------------------8---|
E|8-------------------------------------------10------10----------|

2:40

G|----------------------------------------------------------------|
D|------------------------12----------------/-12------10----------|
A|10------------------10------10--8-----------------------12--10--|
E|------------10--------------------------------------------------|

G|----------------------------------------------------------------|
D|----------------------------------------------------------------|
A|------------10------10------8---10------------------8-------9---|
E|8-----------------------10------------------10------------------|

G|----------------------------------------------------------------|
D|------------------------12--------------------------------------|
A|10------------------10------10--8---------/-12------10------8---|
E|------------10--------------------------------------------------|

G|----------------------------------------------------------------|
D|----------------------------------------------------12----------|
A|------------10------10------8---10----------------10----10-----/|
E|8-----------------------10------------------10--------------10--|

3:02

G|----------------------------------------------------------------|
D|----------------------------------------------------9---10--12--|
A|15--13--12--10--12--10--9---------------9---10--12--------------|
E|----------------------------12--10--12--------------------------|

G|----------------------------------------------------------------|
D|----------------------------------------------------------------|
A|10--8---7-------7-----------------------7---8---10--8---7------/|
E|------------10------10--8---7---8---10----------------------10--|

G|----------------------------------------------------------------|
D|----------------------------------------------------9---10--12--|
A|12--10--9-------9-----------------------9---10--12--------------|
E|------------12------12--10--8---10--12--------------------------|

G|----------------------------------------------------------------|
D|13----------------------13--------------------------------------|
A|--------13----------13------13--10----------------------10------|
E|------------11------------------------------10------10------10--|

3:22

G|------------------------------------------------|
D|----------------12------------------------------|
A|10--12--13--10------13--12--10--13--12--10--13-/|
E|------------------------------------------------|

G|----------------------------------------------------------------|
D|----------------------------------------------------------------|
A|12----/-12----/-12-/12-/12-/12-/12-/12-/12-/12-/12-/12-/12-/12--|
E|----------------------------------------------------------------|

G|------------------------------------------------|
D|----------------12------------------------------|
A|10--12--13--10------13--12--10--13--12--10--13-/|
E|------------------------------------------------|

G|----------------------------------------------------------------|
D|----------------------------------------------------------------|
A|12--12--12--12-/12--12--12--12-/12--12--12--12-/12--12--12------|
E|------------------------------------------------------------10--|

3:42

G|----------------------------------------------------------------|
D|------------12--------------------------------------------------|
A|10------------------10----------8---------/-12------10------8---|
E|----------------------------10----------------------------------|

G|----------------------------------------------------------------|
D|----------------------------------------------------------------|
A|------------10------10------8---10----------------------8-------|
E|8-----------------------10------------------10------10------10--|

G|----------------------------------------------------------------|
D|----------/-12------10------------------------------------------|
A|10----------------------12------8-----------10------8------/10--|
E|----------------------------10--------------------------10------|

G|----------------------------------------------------------------|
D|----------------------------------------------------------------|
A|------------10------10------8---10----------10--10--10--10--10-/|
E|8-----------------------10--------------------------------------|

4:02

G|----------------------------------------------------------------|
D|----------------------------------------------------------------|
A|10--10--10--10--10--10--10--10--8---8---8---8---8---8---8---8---|
E|----------------------------------------------------------------|

G|----------------------------------------------------------------|
D|----------------------------------------------------------------|
A|--------------------------------10--10--10--10-/10--10--10--10-/|
E|8---8---8---8---8---8---8---8-----------------------------------|

G|----------------------------------------------------------------|
D|----------------------------------------------------------------|
A|10--10--10--10--10--10--10--10--8---8---8---8---8---8---8---8---|
E|----------------------------------------------------------------|

G|----------------------------------------------------------------|
D|----------------------------------------------------------------|
A|------------------------------/-10--10-/10--10-/10--10-/10--10--|
E|8---8---8---8---8---8---8---8-----------------------------------|

4:23

G|----------------------------------------------------------------|
D|----------------------------------------------------------------|
A|10--10--10--10--10--10--10--10--8---8---8---8---8---8---8---8---|
E|----------------------------------------------------------------|

G|--------------------------------------------------------------------------------|
D|--------------------------------------------------------------------------------|
A|--------------------------------10-10-10-10-10-10-10-10-10-10-10-10-10-10-10-10-|
E|8---8---8---8---8---8---8---8---------------------------------------------------|

G|------------------------------------------------------------------------|
D|------------------------------------------------------------------------|
A|10--10-10-10-10-10--10--10-10-10--10-10-8-8-8-8-8-8-8---8---8-8-8---8-8-|
E|------------------------------------------------------------------------|

G|---------------------------------------------------|
D|---------------------------------------------------|
A|--------------------------------10-10-10-10-10--10-|
E|8---8-8-8---8-8-8-8-8-8-8-8-8----------------------|
Suggest correction
Give kudos to tab author, rate the tab!
1 2 3 4 5
comments
print report bad tab
guest
You may want to rate the tab now too:
select rating
Wanna post a correction for this tab? Suggest correction