Oops, an error
Loading. Please wait.

It Girl Chords

version 5
version 5
35,972 views 1 this week
3 commentsread comments
1 2 3 4 5
1 last vote to show rating
add to favorites
launch autoscroll
font size
0
reset
transpose
0
reset
simplify chords
display chords
guitar tuner
Autoscroll
slow
fast
+/-
esc
set tempo
stop
Help us to improve Ultimate-Guitar.com Take our survey!
×
Author
Difficulty
novice
-------------------------------------------------------------------------------
                             It Girl - Jason Derulo
-------------------------------------------------------------------------------
Tabbed by:Rex Pham
Email:

Tuning:EADGBe

So the pattern in the beginning pretty much repeats throughout the song
*Note* For the most part this song is all down strum and the ^ is
simply me just telling you what part to strum and sing the word on.

Intro:

        A2         Em         B B B         C#m

e|------0----------0----------2-2-2---------4-------------------------------|
B|------2----------0----------2-2-2---------4-------------------------------|
G|------2----------1----------4-4-4---------6-------------------------------|
D|------0----------2----------4-4-4---------6-------------------------------| X2
A|------0----------2----------2-2-2---------4-------------------------------|
E|------0----------0----------2-2-2---------4-------------------------------|

Verse:
            A2          Em           B           C#m
           Under...   Breaking...   Just...     Find...
             ^          ^            ^           ^
e|-----------0----------0----------2-2-2---------4--------------------------|
B|-----------2----------0----------2-2-2---------4--------------------------|
G|-----------2----------1----------4-4-4---------6--------------------------|
D|-----------0----------2----------4-4-4---------6--------------------------|
A|-----------0----------2----------2-2-2---------4--------------------------|
E|-----------0----------0----------2-2-2---------4--------------------------|

            A2          Em           B           C#m
           Maniac...  Insomniac... Five...     Behind...
             ^          ^            ^           ^
e|-----------0----------0----------2-2-2---------4--------------------------|
B|-----------2----------0----------2-2-2---------4--------------------------|
G|-----------2----------1----------4-4-4---------6--------------------------|
D|-----------0----------2----------4-4-4---------6--------------------------|
A|-----------0----------2----------2-2-2---------4--------------------------|
E|-----------0----------0----------2-2-2---------4--------------------------|

            A2          Em           B           C#m
           Girls...    Can... (end of)Please...  Found...
             ^          ^            ^           ^
e|-----------0----------0----------2-2-2---------4--------------------------|
B|-----------2----------0----------2-2-2---------4--------------------------|
G|-----------2----------1----------4-4-4---------6--------------------------|
D|-----------0----------2----------4-4-4---------6--------------------------|
A|-----------0----------2----------2-2-2---------4--------------------------|
E|-----------0----------0----------2-2-2---------4--------------------------|

            A2          Em           B           C#m
           Much...    Than...       That's...    Me...
             ^          ^            ^           ^
e|-----------0----------0----------2-2-2---------4--------------------------|
B|-----------2----------0----------2-2-2---------4--------------------------|
G|-----------2----------1----------4-4-4---------6--------------------------|
D|-----------0----------2----------4-4-4---------6--------------------------|
A|-----------0----------2----------2-2-2---------4--------------------------|
E|-----------0----------0----------2-2-2---------4--------------------------|

Now at the chorus there is a few little things that change being struming and the chords 
that you play at one part. Other than that its the same.
*Note* On the Em the words come between the first and 2nd strum.
*Also* On Em and C#M there is a one beat pause between the 1st and 2nd strum, the rest
       are consistent strumming.
*Help* Think of this as constant strumming if you're having trouble with the pause.
       The *'s put in the strum pattern would be where you would strum but don't because
       well, it's a pause.
            A2         Em           B         C#m
            It...      Baby...      Loving...  Crime...
            ^          ^            ^          ^
e|----------0-0-0----0-*-0-0--------2-2-2------4-*-4-4----------------------|
B|----------2-2-2----0-*-0-0--------2-2-2------4-*-4-4----------------------|
G|----------2-2-2----1-*-1-1--------4-4-4------6-*-6-6----------------------|
D|----------0-0-0----2-*-2-2--------4-4-4------6-*-6-6----------------------|
A|----------0-0-0----2-*-2-2--------2-2-2------4-*-4-4----------------------|
E|----------0-0-0----0-*-0-0--------2-2-2------4-*-4-4----------------------|

            A2         Em           B          C#m
            Fit...     This...      Gimme...   life...
            ^          ^            ^          ^
e|----------0-0-0----0-*-0-0--------2-2-2------4-*-4-4----------------------|
B|----------2-2-2----0-*-0-0--------2-2-2------4-*-4-4----------------------|
G|----------2-2-2----1-*-1-1--------4-4-4------6-*-6-6----------------------|
D|----------0-0-0----2-*-2-2--------4-4-4------6-*-6-6----------------------|
A|----------0-0-0----2-*-2-2--------2-2-2------4-*-4-4----------------------|
E|----------0-0-0----0-*-0-0--------2-2-2------4-*-4-4----------------------|

            A2         B            Em         A2
            Rock...    Night...     Put...  Spotlight...
            ^          ^            ^          ^
e|----------0-0-0----2-*-2-2--------0-0-0------0-*-0-0----------------------|
B|----------2-2-2----2-*-2-2--------0-0-0------2-*-2-2----------------------|
G|----------2-2-2----4-*-4-4--------1-1-1------2-*-2-2----------------------|
D|----------0-0-0----4-*-4-4--------2-2-2------0-*-0-0----------------------|
A|----------0-0-0----2-*-2-2--------2-2-2------0-*-0-0----------------------|
E|----------0-0-0----2-*-2-2--------0-0-0------0-*-0-0----------------------|

I did not come up with this by myself, I actually learned it from a guy on
youtube and this was just me trying to put it down on a tab since no one had
a tab for this song yet.  The link to his tutorial is:

http://www.youtube.com/watch?v=gbtVpWmC1CU

Tab made possible by Todd D.

Give him a view if you're having trouble putting the strumming and singing to the song.

Lyrics:
I've been looking under rocks and breaking locks
Just tryna find ya
I've been like a manic insomniac
5 steps behind you
Tell them other girls, they can hit the exit
Check please...
Cause I finally found the girl of...my dreams
Much more than a Grammy award
That's how much you mean to me

You could be my it girl
Baby you're the shhh girl
Lovin' you could be a crime
Crazy how we fit girl
This it girl
Give me 25 to life
I just wanna rock all night long
And put you in the middle of my spotlight
You could be my it girl
You're my biggest hit girl

Let me play it loud
Let me play it loud like...oh oh oh oh
Let me play it loud
Let me play it loud like...oh oh oh oh
Let me play it loud

You can't help but turn them heads
Knockin' them dead
Dropping like flies around you
If I get your body close not letting go
Hoping you're about to
Tell them other guys they can lose your number
You're done!
They don't get another shot cause you're...love drunk
Like a TV show playing reruns
Every chance I get
I'mma turn you on

[Chorus]
You could be my it girl
Baby you're the shhh girl
Lovin' you could be a crime
Crazy how we fit girl
This it girl
Give me 25 to life
I just wanna rock all night long
And put you in the middle of my spotlight
You could be my it girl
You're my biggest hit girl

Let me play it loud
Let me play it loud like...oh oh oh oh
Let me play it loud
Let me play it loud like...oh oh oh oh
Let me play it loud

[Bridge]
Can't seem to stop you from...running, running
Through my, through my mind, mind
Just keep it coming, coming
Til I make you mine, mine
You've got that something, something
I wanna be with girl
You're my greatest hit girl
Just say this is it girl...
Hey baby...
Don't you know you're my it girl

[Chorus]
You could be my it girl
Baby you're the shhh girl
Lovin' you could be a crime
Crazy how we fit girl
This it girl
Give me 25 to life
I just wanna rock all night long
And put you in the middle of my spotlight
You could be my it girl
You're my biggest hit girl

Let me play it loud
Let me play it loud like...oh oh oh oh
Let me play it loud
Let me play it loud like...oh oh oh oh
Let me play it loud


************************************

| /   slide up
| \   slide down
| h   hammer-on
| p   pull-off
| ~   vibrato
| +   harmonic
| x   Mute note
| b   Bend
| pb  Pre-bend
| br  Bend release
| pbr Pre-bend release
| brb Bend release bend

************************************
Suggest correction
Give kudos to tab author, rate the tab!
1 2 3 4 5
comments
print report bad tab
3 comments total.
+2 reply
Phamrv1991 21 Oct 11, 2011 03:16 AM

I made a huge mistake! At the I just wanna rock all night long I forgot to right in the right fingerings. The cord process is correct though just not the fingerings shown. I am updating this tab as we speak! Sorry!

0 reply
IanPHilippines 10 Nov 02, 2011 05:29 AM

Was wondering about that part...

Well after that correction, The song is perfect... Even without the video just this tab, you can learn the song easily.

Love the song and of course the tab also. 5 star!

0 reply
ortizeg 10 Dec 03, 2011 09:01 PM

I am positive that Em should be an E.

guest
You may want to rate the tab now too:
select rating
Wanna post a correction for this tab? Suggest correction