Oops, an error
Loading. Please wait.

Ghost Of My Old Dog tab

31 views 1 this week
no commentswrite comment
1 2 3 4 5
3 more votes to show rating
add to favorites
×
Save as Personal and add changes to this tab that will be seen only by you. Learn more ›
×
You can save this tab as Personal to edit and correct it or add notes. All changes will be seen only by you. Learn more »
launch autoscroll
font size
0
reset
how to read this tab
guitar tuner
edit
Autoscroll
slow
fast
+/-
esc
set tempo
stop
Author
Difficulty
[Intro]
e|---5---5---5---5---5---5---5---5--|
B|---0---0---0---0---0---0---0---0--|
G|----------------------------------| x2
D|-5---5---5---5---5---5---5---5----|
A|----------------------------------|
E|----------------------------------|

[Verse]
     And she would know,
     /In the photos,
e|---5---5---5---5---5---5---5---5--|
B|---0---0---0---0---0---0---0---0--|
G|----------------------------------|
D|-5---5---5---5---5---5---5---0----|
A|----------------------------------|
E|----------------------------------|

     For it was she,
     /Where I would pose,
e|---5---5---5---5---5---5---5---5--|
B|---0---0---0---0---0---0---0---0--|
G|----------------------------------|
D|-4---4---4---4---4---4---4---0----|
A|----------------------------------|
E|----------------------------------|

     Who said that I,
     /With the pets that I once
e|---3---3---3---3---3---3---3---3--|
B|---0---0---0---0---0---0---0---0--|
G|----------------------------------|
D|-3---3---3---3---3---3---3---0----|
A|----------------------------------|
E|----------------------------------|

     I looked happy,
     /had,
e|---3---3---3---3---3---3---3---3--|
B|---0---0---0---0---0---0---0---0--|
G|----------------------------------|
D|-2---2---2---2---2---0---2---0----|
A|----------------------------------|
E|----------------------------------|

     But they're all gone now

  B7 
e|---2---2---2---2---2---2---2---2--|
B|---0---0---0---0---0---0---0---0--|
G|----------------------------------|
D|----------------------------------|
A|-2---2---2---2---2---2---2---2----|
E|----------------------------------|

     To an earthen bed.

  C  
e|---3---3---3---3-3----------------|
B|---1---1---1---1-1----------------|
G|----------------------------------|
D|----------------------------------|
A|-3---3---3---3---3----------------|
E|----------------------------------|

Continue the same finger picked style:

  Strummed / Picked
G 
e|---3---3---3---3---3---3---3---3--|
B|---0---0---0---0---0---0---0---0--|
G|----------------------------------|
D|----------------------------------|
A|----------------------------------|
E|-3---3---3---3---3---3---3---3----|

    Don't yell at me,
G  
   Cause you can't see
Em 
   Who I'm thinking of

B7                  C

(Same chords becoming progressively more electric/barre chords:)

G              Em                     B7                C   
You act as if, you've caught me with, Someone I used to love
G                              Em                     B7                C   
Well I guess you've caught me, But you won't stop me, And I'll never have enough
G                 Em                 B7                       C    
I'm only talking! I'm only laughing! With the ghost of my old dog!

[Bridge]

   ahhhhhhh ahhh
e|---5---5---5---5---5---5---5---5--|
B|---0---0---0---0---0---0---0---0--|
G|----------------------------------|
D|-5---5---5---5---5---5---5---0----|
A|----------------------------------|
E|----------------------------------|

   ahhhh ahh  
e|---5---5---5---5---5---5---5---5--|
B|---0---0---0---0---0---0---0---0--|
G|----------------------------------|
D|-4---4---4---4---4---4---4---0----|
A|----------------------------------|
E|----------------------------------|

   ooohhhh ahhh  
e|---3---3---3---3---3---3---3---3--|
B|---0---0---0---0---0---0---0---0--|
G|----------------------------------|
D|-3---3---3---3---3---3---3---0----|
A|----------------------------------|
E|----------------------------------|

   ooohhh aahhhh
e|---3---3---3---3---3---3---3---3--|
B|---0---0---0---0---0---0---0---0--|
G|----------------------------------|
D|-2---2---2---2---2---0---2---0----|
A|----------------------------------|
E|----------------------------------|

     But they're all gone now

  B7 
e|---2---2---2---2---2---2---2---2--|
B|---0---0---0---0---0---0---0---0--|
G|----------------------------------|
D|----------------------------------|
A|-2---2---2---2---2---2---2---2----|
E|----------------------------------|

     To an earthen bed.

  C  
e|---3---3---3---3-3----------------|
B|---1---1---1---1-1----------------|
G|----------------------------------|
D|----------------------------------|
A|-3---3---3---3---3----------------|
E|----------------------------------|


    Don't yell at me,
G  

   Cause you can't see
Em 

   Who I'm thinking of

B7                  C


(Same chords becoming progressively more electric/barre chords:)

G              Em                     B7                C   
You act as if, you've caught me with, Someone I used to love
G                              Em                     B7                C   
Well I guess you've caught me, But you won't stop me, And I'll never have enough
G                 Em                 B7                       C    
I'm only talking! I'm only laughing! With the ghost of my old dog!
Suggest correction
Creating personal tab
Creating personal tab
You can edit any tab online and save it as your Personal.

You can edit, replace or remove any tab part or add personal notes – all changes will be seen only by you.

Personal tabs can be accessed anytime from any device, even offline.
Learn more »
Give kudos to tab author, rate the tab!
1 2 3 4 5
comments
print report bad tab
guest
You may want to rate the tab now too:
select rating
Wanna post a correction for this tab? Suggest correction