Oops, an error
Loading. Please wait.

Matterhorn Tab

1,740 views 9 this week
no commentswrite comment
1 2 3 4 5
excellent!
x 4
add to favorites
launch autoscroll
font size
0
reset
how to read this tab
guitar tuner
Autoscroll
slow
fast
+/-
esc
set tempo
stop
Help us to improve Ultimate-Guitar.com Take our survey!
×
Author
Difficulty
intermediate
NOTE - I don't know the correct name for A+ but just play it as I have written 
below. Any corrections/comments/ratings welcome. Enjoy!

STANDARD TUNING


CHORDS


Em - 022000
C  - x32010
G  - 320003
Bm - x24432
B  - x24442
A  - x02220
A+ - x42020
D  - xx0232


INTRO - 

e|------3---|  x8
B|----5---5-|
G|--4-------|
D|----------|
A|----------|
E|----------|


AFTER CYMBAL CRASH - 


1] Strum - Em  C  G  Bm x2
OR
2] Play below -

e|------3---|  x4
B|----5---5-|
G|--4-------|
D|----------|
A|----------|
E|----------|

e|------3---|  x4
B|----5---5-|
G|--5-------|
D|----------|
A|----------|
E|----------|

e|------3---|  x4
B|----3---3-|
G|--4-------|
D|----------|
A|----------|
E|----------|

e|------2---|  x4
B|----3---3-|
G|--4-------|
D|----------|
A|----------|
E|----------|


Em
   10 O'clock and her life quit going,
C
   It wasn't long til it started snowing,
G                                            Bm
   And the end saw the wind really blowing around.


Em
   Lone bird on a perch nearby,
C
   Saw something in her come untied,
G                                                      Bm    B
   And then shivered just a bit as she aimed toward the sky.


C
   Get down that Matterhorn,
G
   What's wrong with the safe and warm?
Em                                       A
   What's wrong with a book and tea at night?
C
   Up high in a friendless wind,
A+
   Tears frozen upon decent,
D                            Bm    B 
   Get down that Matterhorn again.



Instrumental - Em  C  G  Bm x2



Em
   There's a hand written note he wrote,
C
   In the pocket of a cold down coat,
G                                       Bm
   On the body of the one who has left world.


Em
   And in the note there's a love professed,
C
   And some apology about some mess.
G                                           Bm    B
   But she won't be reading those words too soon.


C
   Get down that Matterhorn,
G
   What's wrong with the safe and warm?
Em                                       A
   What's wrong with a book and tea at night?
C
   Up high in a friendless wind,
A+
   Tears frozen upon decent,
D                            Bm    B 
   Get down that Matterhorn again.



Instrumental -

1] Strum - C  G  Em  A
OR
2] Play below - 

e|------3---|  x4
B|----5---5-|
G|--5-------|
D|----------|
A|----------|
E|----------|


e|------3-------3-------3---------|  
B|----3---3---3---3---3---3---3---|
G|--4-------4-------4-------4---2-|
D|--------------------------------|
A|--------------------------------|
E|--------------------------------|


e|------0---|  x4
B|----0---0-|
G|--0-------|
D|----------|
A|----------|
E|----------|


e|------0-------0-------0-----------|  
B|----0---0---0---0---0---0-------0-|
G|--2-------2-------2---------2-----|
D|----------------------------------|
A|----------------------------------|
E|----------------------------------|



C 
Up high in a frightening sky,
A+
What's wrong with a quiet night?
D                          Bm   B
Get down that Matterhorn again.



Ending - 

1] Strum - Em
OR
2] Play below -

e|------3---|  [Keep playing till over]
B|----5---5-|
G|--4-------|
D|----------|
A|----------|
E|----------|
Suggest correction
comments
print report bad tab
guest
You may want to rate the tab now too:
select rating
Please do not post tabs as comments. Select "correction" instead!